N.d.t.g

piesne (46)

  texty (43) / preklady (0)
  akordy (44) / taby (2)
  noty (0) / slideshow (0)

články (0)
fotogaléria
diskusia
videá
diskografia
v obchode
odkazy
koncerty
sťahuj



pridaj vlastný článok




 

N.d.t.g

Fanúšikov: 0



A B C Č D E F G H CH I J K L Ľ M N O P Q R S Š T U V W X Y Z Ž



ako:
N.d.t.g - Nezmyselna smrt
N.d.t.g - Nezmyselna smrt

tlač

edituj
Rok vzniku: 2013
Pesničku videlo 1553 návštevníkov.

Kvalita tabov : bez hodnotenia
Hodnotilo ľudí: 0 ohodnoť aj ty
Prispievateľ:

Stratocaster
  *** Autor textu: -//- *** Autor hudby: -//-
Intro:

E--------0-----0/2----2-3--2
H----0------0-----3---------
G------0--0---------2----2--
D--2-----------0-------------
A-----------------------------
E-0---------------------------

E-0-----------0-2-----3--2--
H---1---1--2-----3--3-------
G-----0------------2---2-----
D---------2-----0------------
A-3--------------------------
E-----------------------------

2x

 
»
Tvoje obľúbené položky
Tvoje obľúbené položky
»
Nové albumy interpreta
Nové albumy interpreta

»
Najnovšie videá
Najnovšie videá
»
Najnavštevovanejšie piesne
Najnavštevovanejšie piesne
Zlý deň - akordy a text

Doležitý zajtrajšok - akordy a text

Fatamorgána - akordy a text

My dvaja - akordy a text

Sila peňazí - akordy a text

Peklo na zemi - akordy a text

Tabu - akordy a text

Generácia 21.storočia - akordy a text

N N Návšteva - akordy a text

50-50 - akordy a text

viac




home | interpreti | register piesní | cd & dvd shop | pripomienky/nápady | kontakt | ochrana údajov | inzercia
Copyright © Pavol Bacigál, 2000-2017. Všetky práva vyhradené.
TOPlist