Kýbel Mačiek

piesne (25)

  texty (15) / preklady (0)
  akordy (21) / taby (3)
  noty (0) / slideshow (0)

články (0)
fotogaléria
diskusia
videá
diskografia
v obchode
odkazy
koncerty
sťahuj



pridaj vlastný článok

Kýbel Mačiek:
Kýbel Mačiek sa pýtajú: Je to pop*či? - ... - gregi.net


Kýbel Mačiek:
Kýbel mačiek objavuje slovné hračky a buranroll - ... - sme.sk


Kýbel Mačiek:
Kýbel Mačiek – Vzbura Buranov - ... - xorpi.name


 

Kýbel Mačiek

Fanúšikov: 4



A B C Č D E F G H CH I J K L Ľ M N O P Q R S Š T U V W X Y Z Ž



ako:
Kýbel Mačiek - Je to popiči ?? - solo
Kýbel Mačiek - Je to popiči ?? - solo

tlač

edituj
Rok vzniku: 2011
Pesničku videlo 2645 návštevníkov.

Kvalita tabov : bez hodnotenia
Hodnotilo ľudí: 0 ohodnoť aj ty
Prispievateľ:

Bilbo_KM
  *** Autor textu: Kýbel *** Autor hudby: Kýbel Mačiek
Legenda

L - legato
x - tlmenie lavou rukou
h - hammer/pull off
b - bend
s - slide
~ - vibrato
> - akcent
t - trilok
M - tlmenie dlanou
. - staccato
+ - tapping
W - siroke vibrato
< - crescendo
w - whammy
= - tremolo


E |----------------------------|
B |----------------------------|
G |----------------------------|
D |--5--------5--5--------5----|
A |----------------------------|
E |----------------------------|


----------------------------------------------------------------------------|
----------------------------------------------------------------------------|
----------------------------------------------------------------------------|
--3-----------3-----------4-----------5--------------------------5----------|
----------------------------------------------------------------------------|
----------------------------------------------------------------------------|


----------------------------|----------------------------|
----------------------------|----------------------------|
----------------------------|----------------------------|
--8--7--5--8--7--5--1-------|--3--------7--5--------5----|
----------------------------|----------------------------|
----------------------------|----------------------------|


----------------------------------------------------------------------------|
--8-----------------8-------------------------------------------------------|
----------------------------------------------------------------------------|
-----------------------------8--------8-----7-----5-----8-----7-----5-------|
----------------------------------------------------------------------------|
----------------------------------------------------------------------------|


----------------------------------------|----------------------------|-------|
--------------------11b-----------------|--11L---------------11-13L--|--13---|
--------------------10b-----------------|--10L---------------10-10L--|--10---|
-----4--5-----4--5L-5L------------------|--5L----------------5L-5L---|--5----|
--5--------5----------------------------|----------------------------|-------|
----------------------------------------|----------------------------|-------|


----------------|----------------------------|--6s-8s-6-----6-------------|
--8b-8b-8b------|--8b-8s-------6-----8-------|-----------8-----8s-6-------|
----------------|--------7-------------------|-----------------------7----|
----------------|----------------------------|----------------------------|
----------------|----------------------------|----------------------------|
----------------|----------------------------|----------------------------|


--------------6-------------------------------------|
--6s-8--------------------8-------------------------|
----------------------------------------------------|
----------------------------------------------------|
----------------------------------------------------|
----------------------------------------------------|


----------------------------|----------------------------|
----------------------------|----------------------------|
--5--x--x--3--x--x--5--x----|--x--3--x--x--5--x--3--x----|
--5--x--x--3--x--x--5--x----|--x--3--x--x--5--x--3--x----|
----------------------------|----------------------------|
----------------------------|----------------------------|


--------------6-----8s-10-------8-------------------|-------------------------||
--6-----8-----------------------------11------------|--13---------------------||
----------------------------------------------------|-------------------------||
----------------------------------------------------|-------------------------||
----------------------------------------------------|-------------------------||
----------------------------------------------------|-------------------------||

 
»
Tvoje obľúbené položky
Tvoje obľúbené položky
»
Nové albumy interpreta
Nové albumy interpreta
6

»
Najnovšie videá
Najnovšie videá

Kbel Maiek - Je to popii ??

Kbel Maiek - Je to popii?? (acoustic)

Kbel Maiek - Je to popii (Majles Nit

Kbel Maiek - Je to POPii (Dead Kidz r

Kbel Maiek - Rozjebem byt (Official vi

Kbel Maiek- Je to popii (Live Wood Pu
»
Najnavštevovanejšie piesne
Najnavštevovanejšie piesne
Opitý som - akordy a text

Pratala sa žena L.B.S. - akordy a text

Nechoď do lesa - akordy a text

Blonďavá - akordy a text

Ukáž mi kozy - akordy a text

Rozjebem byt - akordy a text

Je to popiči ?? - akordy a text

Šalátový holokaust - akordy a text

Rozjebem byt! - intro - taby

Buran - akordy

Pomaly sa tackám domov - akordy a text

Pijan - akordy a text

Klamár - akordy a text

Je to popiči ?? - solo - taby

Šalátový holokaust - intro - taby

Princezná z garzónky - akordy a text

Nie som doma - akordy a text

Bazerant - akordy

Strojček - akordy

Silvester - akordy

viac




home | interpreti | register piesní | cd & dvd shop | pripomienky/nápady | kontakt | ochrana údajov | inzercia

TOPlist