Hex

piesne (122)

  texty (107) / preklady (0)
  akordy (80) / taby (10)
  noty (0) / slideshow (0)

články (195)
fotogaléria
diskusia
videá
diskografia
v obchode
odkazy
koncerty
sťahuj



pridaj vlastný článok

Hex:
Hex chystá na festival Červeník nový program, maká na vylepšených aranžmánoch a
kvalitnejšom zvuku piesní
- Hex chystá na festival Červeník nový program, maká na vylepšených aranžmánoch a kvalitnej... - ahudba.sk


Hex:
Vydáva album Live in Stará tržnica - Slovenská kapela Hex vydáva album Live in Stará tržnica. Ide o záznam minuloročného konce...


Hex:
HEX vydáva unikátne live CD, kúpiť si ho môžete už na koncerte v Starej tržnici! - ... - livemusic.sk


Hex:
Kapela Hex vyhlásila súťaž o gitaru - Slovenská kapela Hex vyhlásila súťaž o akustickú gitaru jej frontmana Petra "Ďuďa" Dudáka...


Hex:
HEX sa pripravuje na turné s Družinou a vyhlasuje súťaž o gitaru! - ... - livemusic.sk


Hex:
Zverejnili pieseň Wilson City aj s videoklipom - Slovenská kapela Hex zverejnila skladbu Wilson City, ktorú nahrala pre film Wilsonov (201...


Hex:
Hexáci nahrali titulnú pieseň k filmu Wilsonov - Hexáci nahrali titulnú pieseň k filmu Wilsonov ... - ahudba.sk


Hex:
Nové turné Hexu aj na ľudovú nôtu, prizvali si kapelu Družina - Nové turné Hexu aj na ľudovú nôtu, prizvali si kapelu Družina ... - ahudba.sk


Hex:
Hex a Družina vyrazia na turné - Slovenské kapely Hex a Družina vyrazia na Všetko najlepšie acoustic tour 2015. Koncertná ...


Colours Of Ostrava:
Pestrý festival GalotaFest bude opäť väčší, ženie ho ambícia inšpirovať a
zabávať
- Pestrý festival GalotaFest bude opäť väčší, ženie ho ambícia inšpirovať a zabávať ... - ahudba.sk


 

Hex

Fanúšikov: 24



A B C Č D E F G H CH I J K L Ľ M N O P Q R S Š T U V W X Y Z Ž



ako:
Hex - Maťo a Linda - intro
Hex - Maťo a Linda - intro

tlač

edituj
Pesničku videlo 3505 návštevníkov.

Kvalita tabov : bez hodnotenia
Hodnotilo ľudí: 0 ohodnoť aj ty
Prispievateľ:

666Dodik666
e-------------------------------------------------------0------------
b---------------------------5---------------------------3------------
g------5-5-------------5---1---7-7b7-7b7---5-7-5--3-2-----7b7b7b-5-7-
d-5h7-------7-5---------------------------------------3--------------
a---------------7-5--7-----------------------------------------------
e--------------------------------------------------------------------

e---------------------------------
b---13--13--13-------12--12--12---
g-14--14--14--14---12--12--12--12-
d---------------------------------
a---------------------------------
e---------------------------------

e--------------------------------------------------
b--------------------------------------------------
g-99-7---------2x2x-3-2--32-32----2x--77-7b7b7b-57-
d-------9--7-6-------------------------------------
a--------------------------------------------------
e--------------------------------------------------

 
»
Tvoje obľúbené položky
Tvoje obľúbené položky
»
Nové albumy interpreta
Nové albumy interpreta
CD Hex Poison in the system – the demos
CD Poison in the
system – the
demos
CD Hex Ty a ja
CD Ty a ja
2xCD Hex 1996-2000
2xCD 1996-2000
2xCD Hex 1990-1995
2xCD 1990-1995

»
Najnovšie videá
Najnovšie videá

Hex - mato a linda

Hemendex LIVE: Hex -- Maťo a Linda

Hex - Maťo A Linda (Žákovice Open Live)

Hex - Maťo a Linda @ Dobrý festival 2014

HEX-Mato a Linda (Skalica MusicFest '08)

Hex-Maťo a Linda
»
Najnavštevovanejšie piesne
Najnavštevovanejšie piesne
Keď sme sami - akordy a text

Keď sme sami - text

Indiánske leto - akordy a text

Nikdy nebolo lepšie - akordy a text

V piatok podvečer - akordy a text

Beh - akordy

Náš svet je pestrý - akordy a text

Vetroň - taby

V piatok podvečer - akordy a text

Život - akordy a text

viac




home | interpreti | register piesní | cd & dvd shop | pripomienky/nápady | kontakt | ochrana údajov | inzercia
Copyright © Pavol Bacigál, 2000-2017. Všetky práva vyhradené.
TOPlist