Elán

piesne (613)

  texty (418) / preklady (32)
  akordy (278) / taby (73)
  noty (19) / slideshow (0)

články (339)
fotogaléria
diskusia
videá
diskografia
v obchode
odkazy
koncerty
sťahuj



pridaj vlastný článok

Ján Baláž:
Elán v lete odohrá posledné open air koncerty, 50. výročie oslávi už len v
halách
- včera o 09:30 | redakcia Historicky najúspešnejšia slovenská skupina Elán v stredu na ... - zoznam.sk


Ján Baláž:
Obrovský šok! Jožo Ráž opúšťa Elán! - pred 14 hodinami Topstar.sk Showbiznis Obrovský šok! Jožo Ráž opúšťa Elán! OSTATNÍ ČÍ...


Elán:
Kapela Elán zahraje čtyři koncerty v ČR venku, nově i v Loučni - Aktualizace: 04.04.2017 11:26 Vydáno: 04.04.2017, 11:21 foto Čelnové slovenské kapely... - ceskenoviny.cz


Elán:
PRIDÁVÁ ĎALŠÍ KONCERT POD ŠÍRYM NEBOM. - Skupina Elán v tomto roku pôvodne plánovala odohrať len dva open-air koncerty na Slovensk... - M.Helcl


Elán:
ŽIVÝCH NÁS NEDOSTANÚ POD ŠIRÝM NEBOM - ELÁN SA PRESUNIE Z HÁL NA OPEN AIR PÓDIÁ Kapela Elán se po veľmi úspešnom vypredanom č... - brainzone


Elán:
Elán v Plzni: Živé je nedostanou! - Vydáno včera V rámci Elán tour 2016 Živých nás nedostanú! přijela populární sloven... - ireport.cz


Elán:
Joža Ráža prekvapil obdivovateľ z Guatemaly: Elán mi uľahčil život a otvoril
mnohé dvere!
- 04.10.2016 (39/2016) Vesmír to zariadil. Život číslo 30 a v ňom tesne za sebou príbeh Mig... - cas.sk


Elán:
Elán láká fanoušky na podzimní turné bohatou dvajalbovou reedicí "Živých nás
nedostanú"
- Vydáno: 07.10.2016 10:00 v sekci Recenze - Milan Menčík Elán nachystal pro své fanoušky ... - musicserver.cz


Elán:
Splnený sen: U Joža Ráža sa odohralo nezabudnuteľné stretnutie! Kto ho
navštívil?
- 28.09.2016 (39/2016) V deň D bol Jožo, ako vždy, v pohode. Zato Miguel, hoci sa na stretn... - cas.sk


Elán:
Elánisti vyhodili gitaristu Tótha cez mail. Ťažké srdce nemá: Jožo je bos! - 20. jún 2016, 09:002 ➡ Tip redakcii Elánisti dali svojmu gitaristovi padáka prost... - pluska.sk


 

Elán

Fanúšikov: 138



A B C Č D E F G H CH I J K L Ľ M N O P Q R S Š T U V W X Y Z Ž



ako:
Elán - Chcel by som ti šepkať - basové taby
Elán - Chcel by som ti šepkať - basové taby

tlač

edituj
Pesničku videlo 3986 návštevníkov.

Kvalita tabov : bez hodnotenia
Hodnotilo ľudí: 0 ohodnoť aj ty
Prispievateľ:

Hudino

Chcel by som ti šepkať-Basové Taby


\-slide up
/-slide down
h-hammer on
p-pull of
S-Slap
P-Pop
x-mute



Intro

G|-----7-5-------7-5-------------------3/5-3-5---
D|---------7---------7-----8-8-3/5---------------
A|---5---------5---------------------3-----------
E|-----------------------6-----------------------

-----10/12-10-10-7----------10/12\10---------------------
-8-8---------------10---8-8------------------------------
---------------------------------------10-10-8/10--------
--------------------------------------------------10\3---

------------------
-----------8/10---
------------------
-5-6-8-6/8--------


Verse

G|-----7----5---------------7----5-------------
D|------------7--------------------7-----------
A|---5---xx---------------5---xx---------------
E|--------------5/8-5/8--------------5/8-5/8---
S P SS P P S S S P SS P P S S

------------------------5------------5---5---
---8----8-5---3-5-3--------------------------
--------------------5-3---xx-1-3---3---3-----
-6---xx--------------------------------------
S P SS P P P SS P P S P S P

-----------------------------------------------
---8----8-----------------8----8---------------
----------8---8-10-8-------------8-8-10-8------
-6---xx--------------10-6---xx------------10---
S P SS P P S P SS P P

----------------------
---5----3-5-----------
------------5---------
-3---xx-------3---6---
S P SS P P P S


Pre-Chorus

G|------------------------------------------
D|-8/10-10-10-10-10-8-8-8-7-7-7-5-5-5-5-5---
A|------------------------------------------
E|------------------------------------------


Chorus

G|-----------------------------
D|-----------------------------
A|-3---1-2-3---1-2-3---1-2-3---
E|-----------------------------

---------------------------------------
---------------------------------------
-3-4-5---3-4-5---3-4-5---3-4-5---7-5---
---------------------------------------



Interlude 1

G|-------5h7p5----------------------
D|-------------7/10-----7-----7-----
A|-5\3/5----------------------------
E|------------------5-5---5-5---5---
S S P P S S P S S P S

Interlude 2


G|--------------------------------------
D|--------------------------------------
A|-5-5-7-7-8-8-10-10-12-12---12-10-12---
E|--------------------------------------
S P S



Intro
Verse
Chorus
Intro
Interlude 1 (12x)
Interlude 2 (8x)


 
»
Tvoje obľúbené položky
Tvoje obľúbené položky
»
Nové albumy interpreta
Nové albumy interpreta
VINYL Elan Zivych nas nedostanu [vinyl]
VINYL Zivych nas
nedostanu
[vinyl]
2xCD Elan Zivych nas nedostanu (2cd)
2xCD Zivych nas
nedostanu (2cd)
CD Elan Hodina nehy
CD Hodina nehy
6xCD Elan Kamarati
6xCD Kamarati
CD Elan Zivych nas nedostanu
CD Zivych nas
nedostanu
DVD Elan Elan v divadle
DVD Elan v divadle

»
Najnovšie videá
Najnovšie videá

Elán - Chcel by som ti šepkať

Chcel By Som Ti Šepkať

Elán Chcel by som ti šepkať (pôvodná ver

Elán - Chcel by som Ti šepkať - originál

Elán Chcel by som ti sepkat

Chcel by som ti šepkať ... Elán
»
Najnavštevovanejšie piesne
Najnavštevovanejšie piesne
Láska moja - akordy a text

Neodchádzaj - text

Voda čo ma drží nad vodou - akordy a text

Bosorka - akordy a text

Ak nie si moja - akordy a text

Neviem byť sám - akordy a text

Kde si - akordy a text

Zanedbaný sex - akordy a text

Ryšavá - text

Kráľovná bielych tenisiek - akordy

viac




home | interpreti | register piesní | cd & dvd shop | pripomienky/nápady | kontakt | ochrana údajov | inzercia
Copyright © Pavol Bacigál, 2000-2017. Všetky práva vyhradené.
TOPlist