The Fellas

piesne (1)

  texty (0) / preklady (0)
  akordy (0) / taby (1)
  noty (0) / slideshow (0)

články (11)
fotogaléria
diskusia
videá
diskografia
v obchode
odkazy
koncerty
sťahuj



pridaj vlastný článok

Shawn Mendes:
Nová alba: Xindl X, Shawn Mendes, Tři sestry či The Fellas - Blíží se konec roku a alba umělců výrazných jmen přicházejí na trh. V tomto týdnu upozorň...


The Fellas:
Z Goodfellas jsou The Fellas. I s novým videoklipem - Z Goodfellas jsou The Fellas. I s novým videoklipem];" style="display: none;">  ... - IREPORT


A Banquet:
Okoř se šťávou 2013: Mandrage, David Koller, Charlie Straight nebo UDG - Okoř se šťávou 2013: Mandrage, David Koller, Charlie Straight nebo UDG];" style="display:... - IREPORT


The Fellas:
Benefiční koncert DOBRO 4 YOU podpoří i Goodfellas - 01.04.2013 Napsal(a) Eva Makovská velikost písma zmenšit velikost písma ... - musicweb.cz


A Banquet:
Žebřík už tento pátek, Oslavu zahájí Celeste a završí Nightwork - Už 15. března se v Plzni sejde tuzemská hudební elita na udílení cen Žebřík. Večer modero... - ireport.cz


Gerda Blank:
Na majáles do Zábřehu dorazí Goodfellas, Dead Pope’s Company i Gerda Blank - muzikus.cz


Prago Union:
Desátý ročník zlínského Majálesu zve na Prago Union či Goodfellas - muzikus.cz


Tomáš Klus:
Anděly si odnesli Neckář, Goodfellas, Klus i Dusilová - novinky.cz


The Fellas:
Anděl 2011 - Neckář je v síni slávy, sošku za objev mají Goodfellas - freemusic.cz


The Fellas:
Goodfellas vyráží na turné jako host SUPPORT LESBIENS HOMOBOT TOUR 2011 - musicpress.sk


 

The Fellas

Fanúšikov: 0



A B C Č D E F G H CH I J K L Ľ M N O P Q R S Š T U V W X Y Z Ž



ako:
The Fellas - Bobby Long
The Fellas - Bobby Long

tlač

edituj
Rok vzniku: 2011
Pesničku videlo 2903 návštevníkov.

Kvalita tabov : bez hodnotenia
Hodnotilo ľudí: 0 ohodnoť aj ty
Prispievateľ:

kocourekjirka
  *** Autor textu: GoodFellas *** Autor hudby: GoodFellas
GoodFellas – Bobby Long

Intro 2X
E|-7--10----5----7----------------------------------------
B|-0---0----0----0---------------------------------------
G|-8--11----6----8--------------------------------------
D|-9--12----7----9--------------------------------------
A|-9--12----7----9-----------------------------------
E|X--------------------------------------------------

E|--0---0---0---0-----------------------------------------
B|--7---3---0---0---------12---12---12121212---10-------
G|--8---4---6---8----------------------------------------
D|--9---5---7---9--------------------------------------
A|--9---5---7---9----------------------------------
E|--X---X---5---7------------------------------------

E|--0--0-------3--3---5--5---------------------------------
B|--7--5----------1---3--3-------------------------------
G|--8--6-----------------4-------------------------------
D|--9--7-----------------------------------------------
A|--9--7----3--3---3---5--5----------------------------
E|--X--X---------------------------------------------

Můžou tam být chyby, za případné opravy budu rád. Klidně napište na email.
Jiří Kocourek
kocourekjirka@gmail.com

 
»
Tvoje obľúbené položky
Tvoje obľúbené položky
»
Nové albumy interpreta
Nové albumy interpreta
CD Fellas Scarecrow
CD Scarecrow

»
Najnovšie videá
Najnovšie videá

Bobby Long- The Bounty of Mary Jane (Las

Bobby Long - Darling I Remember the Drin

Tim Rogers & The Fellas "All Things" 200

THE FELLAS HOUSE?!

Ask The Fellas Friday: Why Do Guys Whip

bobby long - the bounty of mary jane - 2
»
Najnavštevovanejšie piesne
Najnavštevovanejšie piesne
Bobby Long - taby




home | interpreti | register piesní | cd & dvd shop | pripomienky/nápady | kontakt | ochrana údajov | inzercia
Copyright © Pavol Bacigál, 2000-2017. Všetky práva vyhradené.
TOPlist