Punkasius

piesne (41)

  texty (16) / preklady (0)
  akordy (1) / taby (25)
  noty (0) / slideshow (0)

články (0)
fotogaléria
diskusia
videá
diskografia
v obchode
odkazy
koncerty
sťahuj



pridaj vlastný článok

Punkasius:
Start Punkasius 3.12.2012 - 30.11.2012 (Pátek) měl schůzku Tomáš s Michalem a ten den si společně zahráli. Jen kytar...


Punkasius:
Jak Vznikl název Punkasius - Kluci vymysleli název punkasius, až po delší době hraní.. Měli hodně nápadů, ale pak Mi...


 

Punkasius

Fanúšikov: 0



A B C Č D E F G H CH I J K L Ľ M N O P Q R S Š T U V W X Y Z Ž



ako:
Punkasius - Rum
Punkasius - Rum

tlač

edituj
Rok vzniku: 2013
Pesničku videlo 1527 návštevníkov.

Kvalita tabov : bez hodnotenia
Hodnotilo ľudí: 0 ohodnoť aj ty
Prispievateľ:

Punkasius
  *** Autor textu: Punkasius *** Autor hudby: Punkasius
Intro, sloka

E ----------------------------------------------------
H ----------------------------------------------------
G --99999999------------66666666----------------------
D --99999999--77777777--66666666--99999999------------
A --77777777--77777777--44444444--99999999------------
E ------------55555555------------77777777------------

Před Ref. 2x

E ----------------------------------------------------
H ----------------------------------------------------
G ----------------------------------------------------
D --77777777--99999999--------------------------------
A --77777777--99999999--------------------------------
E --55555555--77777777--------------------------------

Refrén. 4x

E ----------------------------------------------------
H ----------------------------------------------------
G ---------77777---------55555------------------------
D --55555--77777--77777--55555------------------------
A --55555--55555--77777--33333------------------------
E --33333---------55555-------------------------------

Refrén 2. část

E ----------------------------------------------------
H ----------------------------------------------------
G --------11111111------------9999--------------------
D --9999--11111111--11111111--9999--------------------
A --9999--9-9-9-9---11111111--7777--------------------
E --7777------------9-9-9-9---------------------------

Konec vyhrávka. 2x

E -------1-33--4-3-1-3-1----------1-33-1--------------
H --1-44----------------4----1-44--------4---1--------
G -----------------------------------------3----------
D ----------------------------------------------------
A ----------------------------------------------------
E ----------------------------------------------------

 
»
Tvoje obľúbené položky
Tvoje obľúbené položky
»
Nové albumy interpreta
Nové albumy interpreta

»
Najnovšie videá
Najnovšie videá

Punkasius celé CD + Lyrics (TEXTY)

Punkasius - Dofča (Zkouška) + Text v pop

Punkasius - Live in Suchdol Celý Koncert

Let's Play Splatoon Global Testfire Par

Let's Play SPLATOON STORY-MODUS Part 9 B

Svařák párty 2013
»
Najnavštevovanejšie piesne
Najnavštevovanejšie piesne



home | interpreti | register piesní | cd & dvd shop | pripomienky/nápady | kontakt | ochrana údajov | inzercia
Copyright © Pavol Bacigál, 2000-2017. Všetky práva vyhradené.
TOPlist