The Paranoid

piesne (53)

  texty (39) / preklady (0)
  akordy (8) / taby (12)
  noty (0) / slideshow (0)

články (16)
fotogaléria
diskusia
videá
diskografia
v obchode
odkazy
koncerty
sťahuj



pridaj vlastný článok

Asenth:
Finále Rockovej maturity 2016 preverí tvrdosť kategórie Hard & Heavy - včera o 17:30 | redakcia Súťaž neprofesionálnych hudobníkov Rocková maturita sa... - zoznam.sk


Chinaski:
Hudobníci budú na TOPFEST-e skladať rockovú maturitu. V porote sú aj Zuzana
Smatanová, či Polemic!
- Published by MUSIC ZONE on 24. marca 2016 | Komentáre vypnuté na Hudobníci budú na TO... - music-zone.eu


The Paranoid:
Na Rock for People prídu aj The Paranoid - Na český festival Rock for People príde aj slovenská kapela The Paranoid. Do programu...


Smola A Hrušky:
Smola a Hrušky a The Paranoid odpálili turné vypredaným halloweenskym
koncertom!
- ... - livemusic.sk


The Paranoid:
Slovenští Paranoid hosty Rockle - Paranoid a jejich deska Sedem - Foto: Jiří Matějů Paranoid a jejich deska SedemFot... - rozhlas.cz


Arakain:
Co vychází v březnu 2014: přehled novinek - Co vychází v březnu: přehled novinek];" style="display: none;">  ... - IREPORT


The Paranoid:
Skupina The Paranoid má nový album a klip k piesni Nikdy nezabudnem - ... - spravy.pozri.sk


The Paranoid:
Skupina The Paranoid sa ocitla na psychiatrii - Na psychiatrickom oddelení v Prešove koncom minulého roka náhle hospitalizovali Igora...


Black Sabbath:
Paranoid, Iron Man nebo War Pigs naživo: přijedou Black Sabbath - Paranoid, Iron Man nebo War Pigs naživo: přijedou Black Sabbath];" style="display: none... - IREPORT


The Paranoid:
The Paranoid - Dva svety - Slovenská kapela The Paranoid začíná nabírat na slávě i mimo svou zemi. Svým ... - rockmag.cz


 

The Paranoid

Fanúšikov: 30



A B C Č D E F G H CH I J K L Ľ M N O P Q R S Š T U V W X Y Z Ž



ako:
The Paranoid - Dva svety
The Paranoid - Dva svety

tlač

edituj
Pesničku videlo 3740 návštevníkov.

Kvalita tabov :
Hodnotilo ľudí: 1 ohodnoť aj ty
Prispievateľ:

bender
Treba si to napočuvať lebo nieje napisane presne ako dlho to treba hrať.
Su to moje prve taby takže dufam že dobre. :)

Ladenie Drop C


Riff:
0:00 - 0:19

D/-------------------------------------------------

A/-------------------------------------------------

F/-------------------------------------------------

C/-------------------------------------------------

G/--00-10-00-8-00-8-7-5----------------------------

C/--00-10-00-8-00-8-7-5----------------------------


0:31 - 0:43

D/--------------------------------------------------

A/--------------------------------------------------

F/--------------------------------------------------

C/--------------------------------------------------

G/--00-10-00-3-3-7-7--------------------------------

C/--00-10-00-3-3-7-7--------------------------------


Refren:
0:43 - 1:13

D/--------------------------------------------------

A/--------------------------------------------------

F/--------------------------------------------------

C/--------------------------------------------------

G/--88888--55555--00000--88888--55555--33333--------

C/--88888--55555--00000--88888--55555--33333--------


D/--------------------------------------------------

A/--------------------------------------------------

F/--------------------------------------------------

C/--------------------------------------------------

G/--00000--88888--55555--33333--77777---------------

C/--00000--88888--55555--33333--77777---------------


Riff:
1:13 - 1:18

D/-------------------------------------------------

A/-------------------------------------------------

F/-------------------------------------------------

C/-------------------------------------------------

G/--00-10-00-8-00-8-7-5----------------------------

C/--00-10-00-8-00-8-7-5----------------------------


1:30 - 1:42

D/--------------------------------------------------

A/--------------------------------------------------

F/--------------------------------------------------

C/--------------------------------------------------

G/--00-10-00-3-3-7-7--------------------------------

C/--00-10-00-3-3-7-7--------------------------------


1:42 - 2:12

D/--------------------------------------------------

A/--------------------------------------------------

F/--------------------------------------------------

C/--------------------------------------------------

G/--88888--55555--00000--88888--55555--33333--------

C/--88888--55555--00000--88888--55555--33333--------


D/--------------------------------------------------

A/--------------------------------------------------

F/--------------------------------------------------

C/--------------------------------------------------

G/--00000--88888--55555--33333--77777---------------

C/--00000--88888--55555--33333--77777---------------


Počas sola
2:13 - 2:35

D/--------------------------------------------------

A/--------------------------------------------------

F/--------------------------------------------------

C/--------------------------------------------------

G/--8888--55555--00000--10101010--------------------

C/--8888--55555--00000--10101010--------------------


2:36 - 3:23

D/--------------------------------------------------

A/--------------------------------------------------

F/--------------------------------------------------

C/--------------------------------------------------

G/--8888--55555--33333--00000--8888--5555--333--77--

C/--8888--55555--33333--00000--8888--5555--333--77--


D/--------------------------------------------------

A/--------------------------------------------------

F/--------------------------------------------------

C/--------------------------------------------------

G/--00000--88888--5555--3333--777-------------------

C/--00000--88888--5555--3333--777-------------------


Riff:
3:24 - 3:34

D/-------------------------------------------------

A/-------------------------------------------------

F/-------------------------------------------------

C/-------------------------------------------------

G/--00-10-00-8-00-8-7-5----------------------------

C/--00-10-00-8-00-8-7-5----------------------------


Všetky pripomienky posielajte na miskoguitar@centrum.sk :)




















 
»
Tvoje obľúbené položky
Tvoje obľúbené položky
»
Nové albumy interpreta
Nové albumy interpreta
6
CD Paranoid Tu a teraz
CD Tu a teraz
VINYL Paranoid Satyagraha [vinyl]
VINYL Satyagraha
[vinyl]
CD Paranoid Satyagraha
CD Satyagraha
CD The Paranoid Sedem
CD Sedem

»
Najnovšie videá
Najnovšie videá

The Paranoid - Dva svety

THE PARANOID - Dva Svety (studio documen

The Paranoid-Dva svety making of [Divine

The Paranoid - ukka albumu DVA SVETY

The Paranoid - Dva svety - Nitra 21.12.2

The Paranoid - Dva svety (live)
»
Najnavštevovanejšie piesne
Najnavštevovanejšie piesne
Niekde tam - akordy a text

Zachráň ma - akordy

Smäd - akordy a text

V útrobách - akordy a text

Smäd - text

Únos - text

Odkaz - text

Zachráň Ma - text

Búrka Sĺz - text

Búrka Sĺz [+solo] - taby

Niekde tam - akordy a text

Pocit slobody (Drop C) - taby

V útrobách - text

Záblesky rán - text

Posledný nádych - text

Odkaz - taby

Únos - taby

Únos - taby

Je v nás viac - text

Nepatrím Nikomu - text

viac




home | interpreti | register piesní | cd & dvd shop | pripomienky/nápady | kontakt | ochrana údajov | inzercia

TOPlist