Progress 2

piesne (17)

  texty (10) / preklady (0)
  akordy (8) / taby (2)
  noty (0) / slideshow (0)

články (6)
fotogaléria
diskusia
videá
diskografia
v obchode
odkazy
koncerty
sťahuj



pridaj vlastný článok

Progress 2:
Skupina Progres 2 bude koncertovať v bratislavskom Múzeu obchodu - Skupina Progres 2 bude koncertovať v bratislavskom Múzeu obchodu Bratislava 4...


 

Progress 2

Fanúšikov: 0



A B C Č D E F G H CH I J K L Ľ M N O P Q R S Š T U V W X Y Z Ž



ako:
Progress 2 - Hymna robotů
Progress 2 - Hymna robotů

tlač

edituj
Rok vzniku: 1978
Pesničku videlo 2920 návštevníkov.

Kvalita tabov : bez hodnotenia
Hodnotilo ľudí: 0 ohodnoť aj ty
Prispievateľ:

MichalT
  *** Autor textu: Oskar Man
E----------------------
H----------------------
G----------------------
D----------------------
A-0-4-5---0-3-2-5-4-6-5
E-------3--------------

A tak ďalej

Refrén:

4x

E--------------------------
H--------------------------
G--------------------------
D-7-6-5-4-3-3-2-5-4--------
A-7-6-5-4-3-3-2-5-4----3>15
E--------------------------


E------------------------------------
H------------------------------------
G------------------------------------
D------------------------------------
A---0--11-12--9-8---0--11-12--9-8---0
E-3---------------3---------------3--

 
»
Tvoje obľúbené položky
Tvoje obľúbené položky
»
Nové albumy interpreta
Nové albumy interpreta
CD  Progres 2 Dialog s vesmirem - studio & live
CD Dialog s
vesmirem -
studio & live
CD  Progres 2 Mozek
CD Mozek
CD  Progres 2 Treti kniha dzungli
CD Treti kniha
dzungli
CD Barnodaj Maugli
CD Maugli

»
Najnovšie videá
Najnovšie videá

Progres 2 - Hymna robotů

Progres 2 - Dialog s vesmírem (FULL ALBU

Progres 2 - Píseň o jablku (03/08, Dialo

Progres 2 - Muž, který se podobá odvráce

Progres 2 - zeme 2555

Progres 2 - Planeta Hieronyma Bosche II
»
Najnavštevovanejšie piesne
Najnavštevovanejšie piesne



home | interpreti | register piesní | cd & dvd shop | pripomienky/nápady | kontakt | ochrana údajov | inzercia
Copyright © Pavol Bacigál, 2000-2017. Všetky práva vyhradené.
TOPlist