Punkasius

piesne (41)

  texty (16) / preklady (0)
  akordy (1) / taby (25)
  noty (0) / slideshow (0)

články (0)
fotogaléria
diskusia
videá
diskografia
v obchode
odkazy
koncerty
sťahuj



pridaj vlastný článok

Punkasius:
Start Punkasius 3.12.2012 - 30.11.2012 (Pátek) měl schůzku Tomáš s Michalem a ten den si společně zahráli. Jen kytar...


Punkasius:
Jak Vznikl název Punkasius - Kluci vymysleli název punkasius, až po delší době hraní.. Měli hodně nápadů, ale pak Mi...


 

Punkasius

Fanúšikov: 0



A B C Č D E F G H CH I J K L Ľ M N O P Q R S Š T U V W X Y Z Ž



ako:
Punkasius - Zkaženej Svět (Guitar)
Punkasius - Zkaženej Svět (Guitar)

tlač

edituj
Rok vzniku: 2012
Pesničku videlo 1980 návštevníkov.

Kvalita tabov : bez hodnotenia
Hodnotilo ľudí: 0 ohodnoť aj ty
Prispievateľ:

Punkasius
  *** Autor textu: Punkasius *** Autor hudby: Punkasius
Intro:


E ---------------------------------------------------------------

H ---------------------------------------------------------------

G ----14-12-11-12-14---------------------------------------------

D --12-----------------------------------------------------------

A ---------------------------------------------------------------

E ---------------------------------------------------------------


Před slokou: 2x


E --------------------------------------------------------------------------

H --------------------------------------------------------------------------

G --7777777777777777--------------------4444444444444444--------------------

D --7777777777777777--5555555555555555--4444444444444444--7777777777777777--

A --5555555555555555--5555555555555555--2222222222222222--7777777777777777--

E --------------------3333333333333333--------------------5555555555555555--


Sloka: 4x


E --------------------------------------------------------------------------

H --------------------------------------------------------------------------

G --7777777777777777--------------------4444444444444444--------------------

D --7777777777777777--5555555555555555--4444444444444444--7777777777777777--

A --5555555555555555--5555555555555555--2222222222222222--7777777777777777--

E --------------------3333333333333333--------------------5555555555555555--


Před Refrénem:


E ------------------------------------------------------

H ------------------------------------------------------

G --7---------4---------7-7-7-7-----------4-4-4-4-------

D --7----5----4----7----7-7-7-7--5-5-5-5--4-4-4-4--7----

A --5----5----2----7----5-5-5-5--5-5-5-5--2-2-2-2--7----

E -------3---------5-------------3-3-3-3-----------5----


Refrén: 2x


E --------------------------------------------------------------------------

H --------------------------------------------------------------------------

G --7777777777777777--------------------------------------------------------

D --7777777777777777--7777777777777777--9999999999999999--5555555555555555--

A --5555555555555555--7777777777777777--9999999999999999--5555555555555555--

E --------------------5555555555555555--7777777777777777--3333333333333333--


Před slokou: 2x


E --------------------------------------------------------------------------

H --------------------------------------------------------------------------

G --7777777777777777--------------------4444444444444444--------------------

D --7777777777777777--5555555555555555--4444444444444444--7777777777777777--

A --5555555555555555--5555555555555555--2222222222222222--7777777777777777--

E --------------------3333333333333333--------------------5555555555555555--


Sloka: 4x


E --------------------------------------------------------------------------

H --------------------------------------------------------------------------

G --7777777777777777--------------------4444444444444444--------------------

D --7777777777777777--5555555555555555--4444444444444444--7777777777777777--

A --5555555555555555--5555555555555555--2222222222222222--7777777777777777--

E --------------------3333333333333333--------------------5555555555555555--


Před Refrénem:


E ------------------------------------------------------

H ------------------------------------------------------

G --7---------4---------7-7-7-7-----------4-4-4-4-------

D --7----5----4----7----7-7-7-7--5-5-5-5--4-4-4-4--7----

A --5----5----2----7----5-5-5-5--5-5-5-5--2-2-2-2--7----

E -------3---------5-------------3-3-3-3-----------5----


Refrén: 4x


E --------------------------------------------------------------------------

H --------------------------------------------------------------------------

G --7777777777777777--------------------------------------------------------

D --7777777777777777--7777777777777777--9999999999999999--5555555555555555--

A --5555555555555555--7777777777777777--9999999999999999--5555555555555555--

E --------------------5555555555555555--7777777777777777--3333333333333333--


Intro:


E ---------------------------------------------------------------

H ---------------------------------------------------------------

G ----14-12-11-12-14---------------------------------------------

D --12-----------------------------------------------------------

A ---------------------------------------------------------------

E ---------------------------------------------------------------

 
»
Tvoje obľúbené položky
Tvoje obľúbené položky
»
Nové albumy interpreta
Nové albumy interpreta

»
Najnovšie videá
Najnovšie videá

Punkasius celé CD + Lyrics (TEXTY)

Punkasius - Live in Suchdol Celý Koncert

Punkasius - Gylotyna (Live official musi

Punkasius - Dofča + Saxofon
»
Najnavštevovanejšie piesne
Najnavštevovanejšie piesne



home | interpreti | register piesní | cd & dvd shop | pripomienky/nápady | kontakt | ochrana údajov | inzercia
Copyright © Pavol Bacigál, 2000-2017. Všetky práva vyhradené.
TOPlist