Punkasius

piesne (41)

  texty (16) / preklady (0)
  akordy (1) / taby (25)
  noty (0) / slideshow (0)

články (0)
fotogaléria
diskusia
videá
diskografia
v obchode
odkazy
koncerty
sťahuj



pridaj vlastný článok

Punkasius:
Start Punkasius 3.12.2012 - 30.11.2012 (Pátek) měl schůzku Tomáš s Michalem a ten den si společně zahráli. Jen kytar...


Punkasius:
Jak Vznikl název Punkasius - Kluci vymysleli název punkasius, až po delší době hraní.. Měli hodně nápadů, ale pak Mi...


 

Punkasius

Fanúšikov: 0



A B C Č D E F G H CH I J K L Ľ M N O P Q R S Š T U V W X Y Z Ž



ako:
Punkasius - Svině - (Bass)
Punkasius - Svině - (Bass)

tlač

edituj
Rok vzniku: 2013
Pesničku videlo 1474 návštevníkov.

Kvalita tabov : bez hodnotenia
Hodnotilo ľudí: 0 ohodnoť aj ty
Prispievateľ:

Punkasius
  *** Autor textu: Punkasius *** Autor hudby: Punkasius
Intro: 3x


E ----------------------------------------------------
H ----------------------------------------------------
G ----------------------------------------------------
D ----------------------------------------------------
A --5555-7-8-8-8---5555-7-8-8-8-----------------------
E ----------------------------------------------------


E ----------------------------------------------------
H ----------------------------------------------------
G ----------------------------------------------------
D ----------------------------------------------------
A --5555-7-8-8-8-------------8--777-------------------
E -----------------8-8-8-8----------------------------


Sloka: 2x


E ----------------------------------------------------
H ----------------------------------------------------
G ----------------------------------------------------
D ----------------------------------------------------
A ------------55555555--33333333--11111---------------
E --55555555-----------------------------3333---------


Před Refrénem:


E ----------------------------------------------------
H ----------------------------------------------------
G ----------------------------------------------------
D ----------------------------------------------------
A --5555-7-8-8-8---5555-7-8-8-8-----------------------
E ----------------------------------------------------


E ----------------------------------------------------
H ----------------------------------------------------
G ----------------------------------------------------
D ----------------------------------------------------
A --5555-7-8-8-8-------------8--777-------------------
E -----------------8-8-8-8----------------------------


Refrén: 4x


E ----------------------------------------------------
H ----------------------------------------------------
G ----------------------------------------------------
D ----------------------------------------------------
A --55555555------------77777777----------------------
E ------------55555555------------77777777------------


Vyhrávka:


E ----------------------------------------------------
H ----------------------------------------------------
G ----------------------------------------------------
D ----------------------------------------------------
A --5555-7-8-8-8---5555-7-8-8-8-----------------------
E ----------------------------------------------------


E ----------------------------------------------------
H ----------------------------------------------------
G ----------------------------------------------------
D ----------------------------------------------------
A --5555-7-8-8-8-------------8--777-------------------
E -----------------8-8-8-8----------------------------


Sloka: 2x


E ----------------------------------------------------
H ----------------------------------------------------
G ----------------------------------------------------
D ----------------------------------------------------
A ------------55555555--33333333--11111---------------
E --55555555-----------------------------3333---------


Před Refrénem:


E ----------------------------------------------------
H ----------------------------------------------------
G ----------------------------------------------------
D ----------------------------------------------------
A --5555-7-8-8-8---5555-7-8-8-8-----------------------
E ----------------------------------------------------


E ----------------------------------------------------
H ----------------------------------------------------
G ----------------------------------------------------
D ----------------------------------------------------
A --5555-7-8-8-8-------------8--777-------------------
E -----------------8-8-8-8----------------------------


Refrén: 4x


E ----------------------------------------------------
H ----------------------------------------------------
G ----------------------------------------------------
D ----------------------------------------------------
A --55555555------------77777777----------------------
E ------------55555555------------77777777------------


Intro: 2x


E ----------------------------------------------------
H ----------------------------------------------------
G ----------------------------------------------------
D ----------------------------------------------------
A --5555-7-8-8-8---5555-7-8-8-8-----------------------
E ----------------------------------------------------


E ----------------------------------------------------
H ----------------------------------------------------
G ----------------------------------------------------
D ----------------------------------------------------
A --5555-7-8-8-8-------------8--777-------------------
E -----------------8-8-8-8----------------------------


E ----------------------------------------------------
H ----------------------------------------------------
G ----------------------------------------------------
D ----------------------------------------------------
A --5~----8~--------8-7-5~--5-------------------------
E --------------8~------------------------------------

 
»
Tvoje obľúbené položky
Tvoje obľúbené položky
»
Nové albumy interpreta
Nové albumy interpreta

»
Najnovšie videá
Najnovšie videá

Harlej - Začalo To Nevinně (Holka Modroo

Punkasius - Live in Suchdol Celý Koncert

SVINĚ! live Branišovice

Svině! Live Ostrava 11.6.2010

Svařené víno

Splatoon Servers are down...
»
Najnavštevovanejšie piesne
Najnavštevovanejšie piesne



home | interpreti | register piesní | cd & dvd shop | pripomienky/nápady | kontakt | ochrana údajov | inzercia
Copyright © Pavol Bacigál, 2000-2017. Všetky práva vyhradené.
TOPlist