Punkasius

piesne (41)

  texty (16) / preklady (0)
  akordy (1) / taby (25)
  noty (0) / slideshow (0)

články (0)
fotogaléria
diskusia
videá
diskografia
v obchode
odkazy
koncerty
sťahuj



pridaj vlastný článok

Punkasius:
Start Punkasius 3.12.2012 - 30.11.2012 (Pátek) měl schůzku Tomáš s Michalem a ten den si společně zahráli. Jen kytar...


Punkasius:
Jak Vznikl název Punkasius - Kluci vymysleli název punkasius, až po delší době hraní.. Měli hodně nápadů, ale pak Mi...


 

Punkasius

Fanúšikov: 0



A B C Č D E F G H CH I J K L Ľ M N O P Q R S Š T U V W X Y Z Ž



ako:
Punkasius - Intro - (Guitar)
Punkasius - Intro - (Guitar)

tlač

edituj
Rok vzniku: 2012
Pesničku videlo 1828 návštevníkov.

Kvalita tabov : bez hodnotenia
Hodnotilo ľudí: 0 ohodnoť aj ty
Prispievateľ:

Punkasius
  *** Autor textu: Punkasius *** Autor hudby: Punkasius
4x
E -------5-------------5-------------5----------------------------
H --5-7-8--8-7----5-7-8--8-7----5-7-8--8-7--8-7-5-8-7-3-----------
G ----------------------------------------------------------------
D ----------------------------------------------------------------
A ----------------------------------------------------------------
E ----------------------------------------------------------------

2x
E ----------------------------------------------------------------
H ----------------------------------------------------------------
G ----------------------------------------------------------------
D --2222222--5555555--7777777--777777-----------------------------
A --2222222--5555555--7777777--777777-----------------------------
E --0000000--3333333--5555555--555555-----------------------------

2x
E --------------------------------------------------------------------
H --------------------------------------------------------------------
G ----------555555----------------------------555555------------------
D --222222--555555--555555--777777----222222--555555--555555----------
A --222222--333333--555555--777777----222222--333333--555555--333333--
E --000000----------333333--555555----000000----------333333--111111--

2x
E ----------------------------------------------------------------
H ----------------------------------------------------------------
G ----------------------------------------------------------------
D --2222222--5555555--7777777--777777-----------------------------
A --2222222--5555555--7777777--777777-----------------------------
E --0000000--3333333--5555555--555555-----------------------------

4x
E -------5-------------5-------------5----------------------------
H --5-7-8--8-7----5-7-8--8-7----5-7-8--8-7--8-7-5-8-7-3-----------
G ----------------------------------------------------------------
D ----------------------------------------------------------------
A ----------------------------------------------------------------
E ----------------------------------------------------------------

 
»
Tvoje obľúbené položky
Tvoje obľúbené položky
»
Nové albumy interpreta
Nové albumy interpreta

»
Najnovšie videá
Najnovšie videá

Punkasius - Intro

Let's Play Splatoon Online Part 38: Die

Punkasius - Dofča + Saxofon

Punkasius - Gylotyna (Live official musi

Punkasius - Svařák 1. Zkouška kapely

Punkasius ve Studiu "Pokojíček"
»
Najnavštevovanejšie piesne
Najnavštevovanejšie piesne



home | interpreti | register piesní | cd & dvd shop | pripomienky/nápady | kontakt | ochrana údajov | inzercia
Copyright © Pavol Bacigál, 2000-2017. Všetky práva vyhradené.
TOPlist