Zdeněk Svěrák & Jaroslav Uhlíř

piesne (247)

  texty (235) / preklady (0)
  akordy (189) / taby (3)
  noty (3) / slideshow (0)

články (6)
fotogaléria
diskusia
videá
diskografia
v obchode
odkazy
koncerty
sťahuj



pridaj vlastný článok

4tet:
Domácí hitparádu už měsíc vede Čechomor - ihned.cz


Zdeněk Svěrák & Jaroslav Uhlíř:
Jaroslav Uhlíř - Babička pro večerníček - televize.cz


Zdeněk Svěrák:
Autorská dvojice Svěrák a Uhlíř se ohlíží na DVD - universal.cz


Zdeněk Svěrák:
Zdeněk a Jan Svěrákovi: V krizi s úsměvem - centrum.cz


Zdeněk Svěrák:
Zdeněk Svěrák: Jak mi umřel brácha - blesk.cz


Filmová Hudba Cz:
Zaměstnanec továrničky na smích: Zdeněk Svěrák - televize.cz


 

Zdeněk Svěrák & Jaroslav Uhlíř

Fanúšikov: 4



A B C Č D E F G H CH I J K L Ľ M N O P Q R S Š T U V W X Y Z Ž



ako:
Zdeněk Svěrák & Jaroslav Uhlíř - Zavolejte stráže
Zdeněk Svěrák & Jaroslav Uhlíř - Zavolejte stráže

tlač

edituj
Poznámka: tabbed by Timura

Pesničku videlo 4072 návštevníkov.

Kvalita tabov : bez hodnotenia
Hodnotilo ľudí: 0 ohodnoť aj ty
Prispievateľ:

Timura
e|---------------|-------------|---------------|-------------|
H|---------------|-------------|---------------|-------------|
G|---------------|---------7---|---------------|-------------|
D|-----10-10-10--|--7-10-------|--10--------10-|-10--7--10---|
A|---------------|-------------|---------------|-------------|
E|---------------|-------------|---------------|-------------|


e|---------------|-------------|--------------|-------------|
H|---------------|-------------|--------------|-------------|
G|--7------------|-------------|--------------|-------------|
D|---------------|-------------|-7------------|-------------|
A|------10-10----|-10--8--10---|---8--8--8----|---5----8----|
E|---------------|-------------|--------------|-------------|

 
»
Tvoje obľúbené položky
Tvoje obľúbené položky
»
Nové albumy interpreta
Nové albumy interpreta
2xCD Sverak & Uhlir Pisnicky o zviratech
2xCD Pisnicky o
zviratech
2xCD Sverak & Uhlir Hity a skorohity
2xCD Hity a skorohity
2xCD Sverak & Uhlir To nejlepsi-20 let 2cd
2xCD To nejlepsi-20
let 2cd
CD Sverak & Uhlir Zazit nudu, vadi
CD Zazit nudu, vadi
CD Sverak & Uhlir Zazit krachy, nevadio
CD Zazit krachy,
nevadio
CD Sverak & Uhlir Hodina zpevu 1987-2001
CD Hodina zpevu
1987-2001

»
Najnovšie videá
Najnovšie videá

Ať žijí duchové

Zavolejte stráže

MISS AGRO 2012 # Jaroslav Uhlíř - Hajný

Animační team hotelu Atali Village,Bali

Moravská filharmonie Olomouc - Nedělní m

Ztráty a nálezy (J. Uhlíř)
»
Najnavštevovanejšie piesne
Najnavštevovanejšie piesne
Severní vítr - akordy a text

Narozeninová - akordy a text

Dělání - akordy a text

Ani k stáru (z filmu Vratné lahve) - ver1.1-správně - akordy a text

Do naší hospůdky - akordy a text

Mravenčí ukolébavka - akordy a text

Severní vítr s akordy - akordy a text

Karkulka - akordy

Když se zamiluje kůň - akordy a text

Hajný je lesa pán - lépe - akordy

viac




home | interpreti | register piesní | cd & dvd shop | pripomienky/nápady | kontakt | ochrana údajov | inzercia
Copyright © Pavol Bacigál, 2000-2017. Všetky práva vyhradené.
TOPlist