Koblížci

piesne (36)

  texty (35) / preklady (0)
  akordy (5) / taby (1)
  noty (0) / slideshow (0)

články (0)
fotogaléria
diskusia
videá
diskografia
v obchode
odkazy
koncerty
sťahuj



pridaj vlastný článok

Dan Bárta:
Víkendové Mezi ploty lákají na Sto zvířat, Načevu, Bártu i Tomáše Kluse - zvířat, Načevu, Bártu i Tomáše Kluse 0 Tomáš Klus představil novinky pro letošní rok. ... - lidovky.cz


Koblížci:
Koblížci chystají nové album. Bude prý dospělejší - /**/ více tisc... - IREPORT


Inekafe:
Festival Hrady CZ čeká víkend v Hradci nad Moravicí - Festival Hrady CZ čeká víkend v Hradci nad Moravicí];" style="display: none;">  ... - IREPORT


A Banquet:
Cenu televízie Óčko môže získať Celeste Buckingham, Ego aj Tina - Zo slovenských interpretov môžu uspieť tiež spevák Martin Harich a skupina Peter Bič Proj...


Bratři Ebenové:
Open Air Festival představuje první tuzemské interprety - OAF oznamuje první tuzemské interprety a nabízí limitovanou edici vstupenek za nejnižší... - Radka Spiesová


Koblížci:
Objevem roku v České slavíku bude Poláková, Koblížci nebo Nebe - Ilustrační foto - Barbora Poláková v roli Kristýny Kočí vystoupila 17. dubna v A Studiu R... - ceskenoviny.cz


Airfare:
ČESKO ZA ČESKÝ ÉTER! - Muzikanti se spojili ! Čeští muzikanti se nebojí veřejně připojit k iniciativě Česko za ...


 

Koblížci

Fanúšikov: 12



A B C Č D E F G H CH I J K L Ľ M N O P Q R S Š T U V W X Y Z Ž



ako:
Koblížci - Už mě nenajdou
Koblížci - Už mě nenajdou

tlač

edituj
Pesničku videlo 5189 návštevníkov.

Kvalita tabov :
Hodnotilo ľudí: 1 ohodnoť aj ty
Prispievateľ:

TO0k142
  *** Autor textu: Koblížci *** Autor hudby: Koblížci
Píseň je ve drop D tuningu (D, A, D, G, B, E)

Intro:
Sólová kytara
E -------------------------------------------------------------------------
B -------------------------------------------------------------------------
G 9-9-9-9-9-9-9-9-11-11-11-11-11-11-11-11-13-13-13-13-13-13-13-13-14-13-11-
D -------------------------(Zatlumit strunu)-------------------------------
A 7-7-7-7-7-7-7-7-9 -9 -9 -9 -9 -9 -9 -9 -11-11-11-11-11-11-11-11-12-11- 9-
D -------------------------------------------------------------------------

E -------------------------------------------
B -------------------------------------------
G 9-8-9-9-9-9-9-9-9-9-11-11-9-8-9-9-9-9-8-6-6
D -------------------------------------------
A 7-6-7-7-7-7-7-7-7-7-9 -9 -7-6-7-7-7-7-6-4-4
D -------------------------------------------

Rytmická kytara
D -------------------------------------------------------------------------
B -------------------------------------------------------------------------
G 9-9-9-9-9-9-9-9-------------------------------------------------9-9-9-9-9
D 9-9-9-9-9-9-9-9-6-6-6-6-6-6-6-6-7-7-7-7-7-7-7-7-7-7-7-7-7-7-7-7-9-9-9-9-9
A 7-7-7-7-7-7-7-7-6-6-6-6-6-6-6-6-7-7-7-7-7-7-7-7-7-7-7-7-7-7-7-7-7-7-7-7-7
D ----------------6-6-6-6-6-6-6-6-7-7-7-7-7-7-7-7-7-7-7-7-7-7-7-7----------

D -------------------------------------------------------------------------
B -------------------------------------------------------------------------
G 9-9-9--------------------------------------------------------------------
D 9-9-9-6-6-6-6-6-6-6-6-7--7-7--7-7--9-9
A 7-7-7-6-6-6-6-6-6-6-6-7--7-7--7-7--9-9
D ------6-6-6-6-6-6-6-6-7--7-7--7-7--9-9

Sloka:
Sólová kytara
E -------------------------------------------------------------------------
B -------------------------------------------------------------------------
G ----7--6-7/6------7--6-7/6------7--6-7/6------9-9--7-7----------------
D -------------7-------------7-------------7-----------------------------
A -------------------------------------------------------------------------
D -------------------------------------------------------------------------

Rytmická kytara
E -------------------------------------------------------------------------
B -------------------------------------------------------------------------
G -------------------------------------------------------------------------
D -------------------------------------------------------------------------
A 7-7------------11-11---------6-6-----------7-7---------------------------
D 7-7------------11-11---------6-6-----------7-7---------------------------

Před-refrén
Sólová i rytmická kytara
E -------------------------------------------------------------------------
B -------------------------------------------------------------------------
G -------------------------------------------------------------------------
D 4--4-4-4-4-4-4-4-4-4-4-4-4-4-4-7-7-7-7-7-7-7-7-9-9-9-9-9-9-9-9-----------
A 4--4-4-4-4-4-4-4-4-4-4-4-4-4-4-7-7-7-7-7-7-7-7-9-9-9-9-9-9-9-9-----------
D 4--4-4-4-4-4-4-4-4-4-4-4-4-4-4-7-7-7-7-7-7-7-7-9-9-9-9-9-9-9-9-----------

Refrén
Sólová i rytmická kytara
E -------------------------------------------------------------------------
B -------------------------------------------------------------------------
G 9-9-9-9-9-9-9-9-------------------------------------------------9-9-9-9-9
D 9-9-9-9-9-9-9-9-6-6-6-6-6-6-6-6-7-7-7-7-7-7-7-7-7-7-7-7-7-7-7-7-9-9-9-9-9
A 7-7-7-7-7-7-7-7-6-6-6-6-6-6-6-6-7-7-7-7-7-7-7-7-7-7-7-7-7-7-7-7-7-7-7-7-7
D ----------------6-6-6-6-6-6-6-6-7-7-7-7-7-7-7-7-7-7-7-7-7-7-7-7----------

E -------------------------------------------------------------------------
B -------------------------------------------------------------------------
G 9-9-9--------------------------------------------------------------------
D 9-9-9-6-6-6-6-6-6-6-6-7-x-x-7-x-x-7
A 7-7-7-6-6-6-6-6-6-6-6-7-x-x-7-x-x-7
D ------6-6-6-6-6-6-6-6-7-x-x-7-x-x-7

Bridge
Sólová kytara
E -------------------------------------------------------------------------
B -------------------------------------------------------------------------
G ---9---------------------------------------------------------------------
D -----9-9-9-9-9-7/6-7/6---------------------------------------------------
A 7-7----------------------------------------------------------------------
D -------------------------------------------------------------------------

Rytmická kytara nehraje

Poslední refrén se hraje stejně jako intro.

Intro 1x
Sloka 2x
Před-refrén 1x
1. refrén 1x
2. a 3. refrén 2x
Bridge 8x





 
»
Tvoje obľúbené položky
Tvoje obľúbené položky
»
Nové albumy interpreta
Nové albumy interpreta
CD Koblizci Sami sebou
CD Sami sebou

»
Najnovšie videá
Najnovšie videá

Koblížc!-Už mě nenajdou (lyrics, text)

Už mě nenajdou

Koblížci - Už mě nenajdou

24.07.2013 Už mě nenajdou + Snílek ( Sn

Koblížc! - Už mě nenajdou, Moravské hrad

KOBLÍŽC! - Už Mě Nenajdou (TRAILER)
»
Najnavštevovanejšie piesne
Najnavštevovanejšie piesne
Ty a já - akordy a text

Nechej mě tak - akordy a text

Proč? - akordy a text

Každej den - akordy a text

Sk8 párty - akordy a text

Ty a já - text

Zavři oči - text

Popelář - text

Už mě nenajdou - taby

Mimozemská - text

viac




home | interpreti | register piesní | cd & dvd shop | pripomienky/nápady | kontakt | ochrana údajov | inzercia
Copyright © Pavol Bacigál, 2000-2017. Všetky práva vyhradené.
TOPlist