Free Ties

piesne (14)

  texty (13) / preklady (0)
  akordy (5) / taby (1)
  noty (0) / slideshow (0)

články (0)
fotogaléria
diskusia
videá
diskografia
v obchode
odkazy
koncerty
sťahuj



pridaj vlastný článok




 

Free Ties

Fanúšikov: 3



A B C Č D E F G H CH I J K L Ľ M N O P Q R S Š T U V W X Y Z Ž



ako:
Free Ties - My Fall - Solo
Free Ties - My Fall - Solo

tlač

edituj
Rok vzniku: 2012
V originále: originál
Pesničku videlo 2212 návštevníkov.

Kvalita tabov : bez hodnotenia
Hodnotilo ľudí: 0 ohodnoť aj ty
Prispievateľ:

Ady
Autor hudby: Three Ties

Intro:

/ - Slide

e|--------------------------------------------------------------------------------------------------|
H|----/5--5--7--8--8--5--5--8--10--10--10--8--7--5--5--7--8--8--8--7--5--3--5--7--|
G|--------------------------------------------------------------------------------------------------|
D|--------------------------------------------------------------------------------------------------|
A|--------------------------------------------------------------------------------------------------|
E|--------------------------------------------------------------------------------------------------|

Solo:

e|-------------------------------5--8--7--5--8--7--5--8--5------8--5---------------------------------------------
H|--------------/5----7--5-7----------------------------------7----------7--5--7--9-10-9-7-9-7-5-7-5-3-5-3
G|---2--4--2---------------------------------------------------------------------------------------------------------
D|---------------------------------------------------------------------------------------------------------------------
A|---------------------------------------------------------------------------------------------------------------------
E|---------------------------------------------------------------------------------------------------------------------

e|---------------------------------------------------------------------------------------------------------------------|
H|-2-3-2----------2-3-2-------------------------------------------------------------------------------------------|
G|---------4-2-4----------4-2-4-2-4-2-4-2-1-------------------------------------------------------------------|
D|--------------------------------------------------------------------------------------------------------------------|
A|--------------------------------------------------------------------------------------------------------------------|
E|--------------------------------------------------------------------------------------------------------------------|

 
»
Tvoje obľúbené položky
Tvoje obľúbené položky
»
Nové albumy interpreta
Nové albumy interpreta

»
Najnovšie videá
Najnovšie videá

Free Ties - My Fall

Proper Tie Length - Where should the nec

Bonnie Pointer - Free Me From My Freedom

How to Organize Ties

Justin Timberlake - Suit & Tie (Oliver N

03 - MY TIE IS EVIL - JUMP (OFFICIAL VID
»
Najnavštevovanejšie piesne
Najnavštevovanejšie piesne
Seventh Heaven - akordy a text

My Fall - text

Too Much - text

My Fall - akordy a text

Adrienne - akordy a text

My Fall - Solo - taby

Too Much - akordy a text

Silence - text

Dead with Glory - text

Music is our Life - text

viac




home | interpreti | register piesní | cd & dvd shop | pripomienky/nápady | kontakt | ochrana údajov | inzercia
Copyright © Pavol Bacigál, 2000-2017. Všetky práva vyhradené.
TOPlist