Kabát

piesne (537)

  texty (262) / preklady (0)
  akordy (174) / taby (243)
  noty (0) / slideshow (0)

články (317)
fotogaléria
diskusia
videá
diskografia
v obchode
odkazy
koncerty
sťahuj



pridaj vlastný článok

Kabát:
Skupina Kabat na Topfeste! - ... - livemusic.sk


Kabát:
ROCK POD KAMEŇOM PODPORUJE ČESKO-SLOVENSKÚ ROCKOVÚ SCÉNU - Kompletný line-up nabitý svetovými rockermi s výbornou muzikou uzatvárajú zoskupenia rock... - P.Dráb


Accept:
Report z Metalfest Open Air 2016 v Plzni - Pamatujete na rok 2010, kdy se Metalfest Open Air konal poprvé? Tenkrát byl součástí sé... - rockmag.cz


Kabát:
Kabát prý prodal nejvíce desek, cenu na Andělech ale nevyhraje - Kabát prý prodal nejvíce desek, cenu na Andělech ale nevyhraje Nové desky pro 14. tý... - musicserver.cz


Adele:
Pětadvacátý ročník hudebních cen Anděl zná své výherce - Pětadvacátý ročník hudebních cen Anděl zná své výherce Video: Slza v novém klipu k p... - musicserver.cz


Kabát:
Kabát tvrdí, že je nespravedlivě vyřazen z boje o nejprodávanější album - Skupina Kabát tvrdí, že byla vyřazena z boje o nejprodávanější album loňského roku. Stalo... - novinky.cz


Kabát:
Kabát vyhlásil bojkot cenám Anděl! Podle rockerů jsou výsledky zmanipulované! - Skupina Kabát letošní ceny Anděl bude bojkotovat. Podle ní jsou výsledky zmanipulované. ... - blesk.cz


Kabát:
Spokojený rocker Pepa Vojtek: Vyvedl těhotnou manželku na nákupy - Šťastný rocker Pepa Vojtek vyvedl těhotnou manželku. Pepa Vojtek s manželkou Jovankou vy... - blesk.cz


Chinaski:
Hudobníci budú na TOPFEST-e skladať rockovú maturitu. V porote sú aj Zuzana
Smatanová, či Polemic!
- Published by MUSIC ZONE on 24. marca 2016 | Komentáre vypnuté na Hudobníci budú na TOPFES... - music-zone.eu


Kabát:
Na 13-tom ročníku festivalu TOPFEST to roztočia kapely Kabát, Puddle of Mudd a
UK Subs!
- ... - livemusic.sk


 

Kabát

Fanúšikov: 178



A B C Č D E F G H CH I J K L Ľ M N O P Q R S Š T U V W X Y Z Ž



ako:
Kabát - Lady Gag a Rin (gitara)
Kabát - Lady Gag a Rin (gitara)

tlač

edituj
Rok vzniku: 2010
Pesničku videlo 4391 návštevníkov.

Kvalita tabov :
Hodnotilo ľudí: 2 ohodnoť aj ty
Prispievateľ:

wormik
  *** Autor textu: Milan Špalek *** Autor hudby: Tomáš Krulich

Musíte si gitaru naladiť na Drop D - strunu E podlaďte na Dčko

Legenda:
• m - palm muted - tlmenie zápästím
• x - tlmená struna
• p - pull off - pustiť strunu
• h - hammer on - príklep
• ~ - vibrato

Gitara Ota Váňa:

Intro:
(0:00 - 0:20)

G ---------------------------------------------------------------
D ---------------------------------------------------------------
A --3--5---------3--5---------3--5-------------------------------
D -------0-0-00-------0-0-00-------0-0-00--0-5--3----------------

Sloha:
(0:20 - 0:40) | (1:03 - 1:28)

G ---------------------------------------------------------------
D ---------------------------------------------------------------
A --3--5---------3--5---------3--5-------------------------------
D -------0-0-00-------0-0-00-------0-0-00--0-5--3----------------

Očistu těla,...:
(0:40 - 0:45) | (1:28 - 1:33)

G ---------------------------------------------------------------
D --2-3-2--2-x-x---2-3-2--2-x-x---2-3-2--2-x-x---2-3-2--2-x-x----
A --2-3-2--2-x-x---2-3-2--2-x-x---2-3-2--2-x-x---2-3-2--2-x-x----
D --2-3-2--2-x-x---2-3-2--2-x-x---2-3-2--2-x-x---2-3-2--2-x-x----

Refrén:
(0:45 - 1:03) | (1:33 - 1:51) | (2:06 - 2:44)

G -3-3-3-3-3-3-3-3----------------------------------------------------------------
D -3-3-3-3-3-3-3-3---0-0-0-0-0-0-0-0---3-3---3-5----------------------------------
A -1-1-1-1-1-1-1-1---0-0-0-0-0-0-0-0---3-3---3-5----------------------------------
D -------------------0-0-0-0-0-0-0-0---3-3---3-5------5-0---3-0---5-0---0-3-0-5-3-

Sólo:
(1:51 - 2:06)

e -----------------------------------------------------------------------------------------------------------------------------------
H -----------------------------------------------------------------------------------------------------------------------------------
G -10---12----10---12---12-10-7--|--10---12----10---12---12-10-7--|--14---17----14---17---17-14-11--|--14---17----14---17---17-14-11-
D ---00m---00m--00m--00m---------|----00m---00m--00m--00m---------|----00m---00m--00m--00m----------|----00m---00m--00m--00m---------
A -----------------------------------------------------------------------------------------------------------------------------------
D -----------------------------------------------------------------------------------------------------------------------------------

e ---------------------------------1p0-----3p0-----1p0-----3p0--
H -------------------------------------1p0-----1p0-----1p0-----1
G -------------------------1h2-1h2------------------------------
D -----------------2h3-2h3--------------------------------------
A ---------2h3-2h3----------------------------------------------
D -2h3-2h3------------------------------------------------------

Outro:
(2:44 - 2:49)

G ---------------------------------------------------------------
D -------------------------------------------5--3----------------
A --3--5---------3--5---------3--5-----------5--3----------------
D -------0-0-00-------0-0-00-------0-0-00--0-5--3----------------


Gitara Tomáš Krulich:

Intro:
(0:05 - 0:20)

G --19-19-19--19--19-19--17-17-17--17--17-17--16-16-16--16--16-16--15-15-15--15---
D --xx-xx-xx--xx--xx-xx--xx-xx-xx--xx--xx-xx--xx-xx-xx--xx--xx-xx--xx-xx-xx--xx---
A --17-17-17--17--17-17--15-15-15--15--15-15--14-14-14--14--14-14--13-13-13--13---
D --------------------------------------------------------------------------------

Sloha:
(0:30 - 0:40) | (1:18 - 1:28)

G --19-19-19--19--19-19--17-17-17--17--17-17--16-16-16--16--16-16--15-15-15--15---
D --xx-xx-xx--xx--xx-xx--xx-xx-xx--xx--xx-xx--xx-xx-xx--xx--xx-xx--xx-xx-xx--xx---
A --17-17-17--17--17-17--15-15-15--15--15-15--14-14-14--14--14-14--13-13-13--13---
D --------------------------------------------------------------------------------

Refrén:

Rovnaký ako O.Váňa

Sólo:
Začiatok rovnaký ako O.Váňa, v druhej časti:
(2:01 - 2:07)

e -2h3-2h3-------------------------1p0-----3p0-----1p0-----3p0-------
H ---------2h3-2h3---------------------1p0-----1p0-----1p0-----1---3~
G -----------------1h2-1h2-------------------------------------------
D -------------------------2h3-2h3-----------------------------------
A -------------------------------------------------------------------
D -------------------------------------------------------------------






 
»
Tvoje obľúbené položky
Tvoje obľúbené položky
»
Nové albumy interpreta
Nové albumy interpreta
4xDVD Kabat 2013-2015 live vypich 2014 + o2 arena [3dvd+cd]
4xDVD 2013-2015 live
vypich 2014 + o2
arena [3dvd+cd]
4xCD Kabat Original albums 4cd vol.1 [mjm,dttz,colorado,zpt]
4xCD Original albums
4cd vol.1
[mjm,dttz,colora
do,zpt]
3xVINYL Kabat Suma sumarum [vinyl]
3xVINYL Suma sumarum
[vinyl]
CD Kabát Do pekla do nebe
CD Do pekla do nebe
3xCD+DVD Kabat Suma sumarum 2013 remastered
3xCD+DVD Suma sumarum
2013 remastered
2xCD Kabat Banditi di praga turne 2011
2xCD Banditi di praga
turne 2011

»
Najnovšie videá
Najnovšie videá

Kabát - Lady Gag a Rin [Banditi di praga

Kabát - Lady Gag a Rin

Kabát - Lady Gag a Rin (Kapka naděje 5.2

Kabát - Lady Gag a Rin (cover)

Kabát - Lady Gag a Rin

Kabat - Lady Gag a Rin
»
Najnavštevovanejšie piesne
Najnavštevovanejšie piesne
Malá dáma - akordy a text

Houby magický - akordy a text

Pohoda - akordy a text

Western Boogie - akordy

Kdoví jestli - akordy a text

Burlaci - akordy a text

Brousíme nože - akordy a text

Corrida - akordy a text

Malá Dáma ver.2 - akordy a text

Schody - akordy a text

viac




home | interpreti | register piesní | cd & dvd shop | pripomienky/nápady | kontakt | ochrana údajov | inzercia
Copyright © Pavol Bacigál, 2000-2017. Všetky práva vyhradené.
TOPlist