Dr. Pako

piesne (40)

  texty (28) / preklady (0)
  akordy (12) / taby (6)
  noty (0) / slideshow (0)

články (2)
fotogaléria
diskusia
videá
diskografia
v obchode
odkazy
koncerty
sťahuj



pridaj vlastný článok

Dr. Pako:
Dr. Pako opäť koncertuje a vôbec prvý krát vystúpi v Bratislave - hudba-music.sk


Dr. Pako:
Melodická punk rocková skupina Dr. Pako prvý krát “ordinuje” v Bratislave - musicpress.sk


 

Dr. Pako

Fanúšikov: 3



A B C Č D E F G H CH I J K L Ľ M N O P Q R S Š T U V W X Y Z Ž



ako:
Dr. Pako - Slobodny - solo
Dr. Pako - Slobodny - solo

tlač

edituj
Rok vzniku: 2002
Poznámka: by tapkooo

Pesničku videlo 2659 návštevníkov.

Kvalita tabov : bez hodnotenia
Hodnotilo ľudí: 0 ohodnoť aj ty
Prispievateľ:

tapkooo
  *** Autor textu: Dr. Pako *** Autor hudby: Dr. Pako
SOLO

e---------------------------------------------------------------------------------
b----7-9-7------10-9-7----7---9-7-9---9-7------9-7-9--9-7----10-9-7---------------
g--9------9--------------9---------------9---------------9------------------------
d---------------------------------------------------------------------------------
a---------------------------------------------------------------------------------
e---------------------------------------------------------------------------------


e------------7--------------------------------------------------------------
b----7---9---9-----9-7-7-----10-10-10-10-9-7--9-9-7-7-----------------------
g---9-----------------9-----------------------------------------------------
d---------------------------------------------------------------------------
a---------------------------------------------------------------------------
e---------------------------------------------------------------------------

 
»
Tvoje obľúbené položky
Tvoje obľúbené položky
»
Nové albumy interpreta
Nové albumy interpreta

»
Najnovšie videá
Najnovšie videá

Dr. Pako-Nepamätám si

Dr.Pako - Všetko Po Starom

Dr. Pako - Celý Svet Je Tvoj

Dr.Pako - Vymaluj Si Svet

Dr.Pako - Serieme na vas

dr. Pako - Dievca
»
Najnavštevovanejšie piesne
Najnavštevovanejšie piesne



home | interpreti | register piesní | cd & dvd shop | pripomienky/nápady | kontakt | ochrana údajov | inzercia
Copyright © Pavol Bacigál, 2000-2017. Všetky práva vyhradené.
TOPlist