Dr. Pako

piesne (40)

  texty (28) / preklady (0)
  akordy (12) / taby (6)
  noty (0) / slideshow (0)

články (2)
fotogaléria
diskusia
videá
diskografia
v obchode
odkazy
koncerty
sťahuj



pridaj vlastný článok

Dr. Pako:
Dr. Pako opäť koncertuje a vôbec prvý krát vystúpi v Bratislave - hudba-music.sk


Dr. Pako:
Melodická punk rocková skupina Dr. Pako prvý krát “ordinuje” v Bratislave - musicpress.sk


 

Dr. Pako

Fanúšikov: 3



A B C Č D E F G H CH I J K L Ľ M N O P Q R S Š T U V W X Y Z Ž



ako:
Dr. Pako - Tvoje Boty - Intro+Solo
Dr. Pako - Tvoje Boty - Intro+Solo

tlač

edituj
Rok vzniku: 1999
Poznámka: by tapkooo

Pesničku videlo 2761 návštevníkov.

Kvalita tabov :
Hodnotilo ľudí: 2 ohodnoť aj ty
Prispievateľ:

tapkooo
  *** Autor textu: Dr. Pako *** Autor hudby: Dr. Pako
INTRO+OUTRO
e------------------------------------------------10-9-7----7-
h------10-10----------------------------10-10-----------10---
g--7-9-------9--11-11-11-11-9-------7-9-------9--------------
d------------------------------------------------------------
a------------------------------------------------------------
e------------------------------------------------------------


SOLO (pod solom akordy ako v refrene (A-cis-D-H/E)
e------------------------------------------------------------------------
h-----------------------------------------------------------------9-10---
g---9-9-9-9-11-11-11-11-9------------------------------6-9---9-11------9-
d------------------------------6---7---------6-7---6-7-------------------
a--------------------------7-7---7-----7-7-9-----------------------------
e------------------------------------------------------------------------


Akordy TU:
http://www.supermusic.sk/skupina.php?idpiesne=624524&sid=

 
»
Tvoje obľúbené položky
Tvoje obľúbené položky
»
Nové albumy interpreta
Nové albumy interpreta

»
Najnovšie videá
Najnovšie videá

Dr. Pako-Nepamätám si

Dr.Pako - Slobodný

Dr.Pako - Vymaluj Si Svet

Dr.Pako - Serieme na vas

Dr. Pako - Celý Svet Je Tvoj

Dr.Pako - Baťovka
»
Najnavštevovanejšie piesne
Najnavštevovanejšie piesne



home | interpreti | register piesní | cd & dvd shop | pripomienky/nápady | kontakt | ochrana údajov | inzercia
Copyright © Pavol Bacigál, 2000-2017. Všetky práva vyhradené.
TOPlist