Sifon

piesne (25)

  texty (22) / preklady (0)
  akordy (4) / taby (3)
  noty (0) / slideshow (0)

články (4)
fotogaléria
diskusia
videá
diskografia
v obchode
odkazy
koncerty
sťahuj



pridaj vlastný článok

Ink Midget:
Ink Midget, Wich, Sifon z WWW a další frajeři producenty nové desky Vladimíra
518
- Ink Midget, Wich, Sifon z WWW a další frajeři producenty nové desky Vladimíra 518 ... - musiczone.cz


Dan Deacon:
Začíná Sperm Festival - novinky.cz


Sifon:
Vladimir 518 a Sifon vystoupí v Národním divadle - musicserver.cz


 

Sifon

Fanúšikov: 0



A B C Č D E F G H CH I J K L Ľ M N O P Q R S Š T U V W X Y Z Ž



ako:
Sifon - Pivní fata morgana
Sifon - Pivní fata morgana

tlač

edituj
Poznámka: (komplet)

Pesničku videlo 2826 návštevníkov.

Kvalita tabov : bez hodnotenia
Hodnotilo ľudí: 0 ohodnoť aj ty
Prispievateľ:

Chosse
předehra: G,G,A 2x
H,H,C
G,F,F

sl.: A,C,F
A,C,G

A D
e-----------------------------------------------------------

h------------------------------------------------------7*---

g----------------2-------------------------------9----7*-7*-

D----------------2-------------------------------9---7*-----

A-3--2--0--------0---3-2-3-2-3-2---3--2--0-------5----------

E--------3--2--0---------------------------3-2-0------------


7*- flažolet



ref.: F,C,F,C,C,G,F,C


PODKLAD POD SOLO:
F,C,F,C,C,G,F,C 2X
C,H
A,C,F,A,C,G



solo

e-------------------------------------------

h-10-10--10-8---------10-10--10-8-----------

g------------10-9----------------10-9-------

D------------------------------------10-----

A-------------------------------------------

E-------------------------------------------


e-------------------------------------------

h-------------------------------------------

g----------9--9-12---10--10-10-10-9--9------

D-10--10-10-10---------------------12-10----

A-------------------------------------------

E-------------------------------------------


e-------------------------------------------

h-10-10--10-8------------10-10--10-8--------

g------------10-9/17-17-------------10-9----

D---------------------------------------10--

A-------------------------------------------

E-------------------------------------------


e-------------------------------------------

h-------------------------------------------

g----------9--9-12---10--10-10-10-9--9------

D-10--10-10-10---------------------12-10----

A-------------------------------------------

E-------------------------------------------


e----------------------------------------

h-----------------------------17-15--18--

g----------9-9/14-12--12-14--------17----

D-10--9----7-7------14---14--------------

A----------------------------------------

E----------------------------------------


e--------------------------------------------------

h--------------------------------------------------

g---9-9/14-12--12-14-12-14-----9-12--9-12-10-9-----

D---7-7------14--------14----10----10---------12---

A--------------------------------------------------

E--------------------------------------------------


 
»
Tvoje obľúbené položky
Tvoje obľúbené položky
»
Nové albumy interpreta
Nové albumy interpreta
CD Sifon Siphon
CD Siphon

»
Najnovšie videá
Najnovšie videá

Master of rock 2O10-Pivní fatamorgána(fo

Sifon jdeme na pivo

Sifon - Icy Intro 3000

FATA MORGANA

Sifon-Frajer

»
Najnavštevovanejšie piesne
Najnavštevovanejšie piesne



home | interpreti | register piesní | cd & dvd shop | pripomienky/nápady | kontakt | ochrana údajov | inzercia
Copyright © Pavol Bacigál, 2000-2017. Všetky práva vyhradené.
TOPlist