Alkehol

piesne (254)

  texty (176) / preklady (0)
  akordy (104) / taby (54)
  noty (0) / slideshow (0)

články (47)
fotogaléria
diskusia
videá
diskografia
v obchode
odkazy
koncerty
sťahuj



pridaj vlastný článok

Alkehol:
Alkehol oslaví čtvrtstoletí v Lucerně. Po jejich boku vystoupí Pepa Vojtek, Petr
Janda, Tři sestry a Lukáš Pavlásek
- Vydáno před 13 hodinami | autor: Nicola Bernard Litry piva, hromada alkoholu a tra... - ireport.cz


Alkehol:
Alkehol - Do bezvědomí - 12.12.2012 ve 12 hodin vyšlo nové CD skupiny Alkehol pod hlavičkou vydavatelství Al... - rockmag.cz


Alkehol:
Alkehol slaví 20 let své existence na turné a výběrovým albem - ceskenoviny.cz


Alkehol:
Hořké alkeholové vystřízlivění - musicserver.cz


Alkehol:
Na Wings Rockfeste v Očovej vystúpia Desmod, Alkehol i Brichta - Na letisku pri obci Očová sa premiérovo uskutoční letné hudobné podujatie Wings Rockfest...


Alkehol:
RECENZE: Písničkový tuplák Alkeholu je průvodcem na dvacetiletém tahu - ireport.cz


Alkehol:
Alkehol: Ke kalhotkám přidáme na web i boxerky - denik.cz


Alkehol:
Alkehol zpívají o „chlastu“ už 20 let, oslaví to turné i albem - ireport.cz


Alkehol:
ALKEHOL 20 LET NA TAHU - Tuplák 2CD všech nejlepších kousků… Skupina ALKEHOL letos slaví 20 let svojí existence. ...


Alkehol:
Noc plná hvězd s Mr. Big a Pro-Pain, Basinfirefest s Ill Niño, Benátská noc
s Clawfinger
- muzikus.cz


 

Alkehol

Fanúšikov: 27



A B C Č D E F G H CH I J K L Ľ M N O P Q R S Š T U V W X Y Z Ž



ako:
Alkehol - Buďme veselí
Alkehol - Buďme veselí

tlač

edituj
Pesničku videlo 4557 návštevníkov.

Kvalita tabov : bez hodnotenia
Hodnotilo ľudí: 0 ohodnoť aj ty
Prispievateľ:

Chosse
sloka: Ami F Dmi
ref.: Ami F C G – 3x, Ami F Dmi Ami

solo 1

e-----------------------------------------

h-13-----13-12-13-13------15-13-12-13-----

g-----------------------------------------

D-----------------------------------------

A-----------------------------------------

E-----------------------------------------


e-----------------------------------------

h-13-12-13-13------15-13-12---------------

g---------------------------14------------

D-----------------------------------------

A-----------------------------------------

E-----------------------------------------



solo 2

e-------------------------------

h-13-13-13-12---13-13-13-12-----

g-------------14------------14--

D-------------------------------

A-------------------------------

E-------------------------------


e-------------------------------

h-13-13-13-13--13--13-13-15-----

g--------------------------12---

D-------------------------------

A-------------------------------

E-------------------------------


e-------------------------------

h-13-13-13-12---13-13-13-12-----

g-------------14------------14--

D-------------------------------

A-------------------------------

E-------------------------------


e-------------------------------

h-13-13-13-13--13--13-13-15-----

g--------------------------12-14

D-------------------------------

A-------------------------------

E-------------------------------

sloka: Ami F Dmi
ref.: Ami F C G – 3x, Ami F Dmi Ami



Tak se mi zase zdá, že celej svět je nudnej
nuda překročila i můj práh
bude to asi tím, že tenhle čas je divnej
tak si sednu, říkám si, co bude dál

Tak buďme všichni veselí a pojďme někam pít
přece nejsme zbabělí, nebudem doma hnít
buďme všichni veselí a pojďme radši žít
přece nejsme zbabělí, tak pojďme se dobře mít

Nemám rád samotu, co tak tíží nás
radši jsem veselej tak jako každej z nás
když budeš v pohodě, budeš se usmívat
klid v duši a v srdci mít a radost rozdávat

Tak buďme...

Než budem po smrti, přečtem si o tom
co bude asi dál, co bude potom
jestli nebe, peklo nebo ještě něco hůř
tak si zazpívej a ještě žít zkus

Tak buďme...


 
»
Tvoje obľúbené položky
Tvoje obľúbené položky
»
Nové albumy interpreta
Nové albumy interpreta
3xCD Alkehol Platinum collection
3xCD Platinum
collection
CD Alkehol R.u.m.
CD R.u.m.
CD Alkehol Pojdme se napit
CD Pojdme se napit
CDP Alkehol Pili jsme a budem
CDP Pili jsme a
budem
CD Alkehol Odpocivej v pokoji ...
CD Odpocivej v
pokoji ...
CD Alkehol Na zdravi
CD Na zdravi

»
Najnovšie videá
Najnovšie videá

Buďme veselí stále a vždycky

Buďme veselí - Text

Buďme veselí stále a vždycky

Alkehol - Prach Cest [lyric video]

Alkehol - Není důvod abychom se věšeli -

Alkehol - Je to prima - pili jsme a bude
»
Najnavštevovanejšie piesne
Najnavštevovanejšie piesne
V Bumbaru solo - taby

Travičko zelená - taby

Radek - akordy a text

Buráky - akordy a text

Ruty šuty - akordy a text

Pivo dělá hezká těla - akordy a text

Zmaštěnej - taby

Non stop - akordy a text

ŽIvot je krátkej - akordy a text

Blondýna - akordy a text

viac




home | interpreti | register piesní | cd & dvd shop | pripomienky/nápady | kontakt | ochrana údajov | inzercia
Copyright © Pavol Bacigál, 2000-2017. Všetky práva vyhradené.
TOPlist