Alkehol

piesne (254)

  texty (176) / preklady (0)
  akordy (104) / taby (54)
  noty (0) / slideshow (0)

články (47)
fotogaléria
diskusia
videá
diskografia
v obchode
odkazy
koncerty
sťahuj



pridaj vlastný článok

Alkehol:
Alkehol oslaví čtvrtstoletí v Lucerně. Po jejich boku vystoupí Pepa Vojtek, Petr
Janda, Tři sestry a Lukáš Pavlásek
- Vydáno před 13 hodinami | autor: Nicola Bernard Litry piva, hromada alkoholu a tra... - ireport.cz


Alkehol:
Alkehol - Do bezvědomí - 12.12.2012 ve 12 hodin vyšlo nové CD skupiny Alkehol pod hlavičkou vydavatelství Al... - rockmag.cz


Alkehol:
Alkehol slaví 20 let své existence na turné a výběrovým albem - ceskenoviny.cz


Alkehol:
Hořké alkeholové vystřízlivění - musicserver.cz


Alkehol:
Na Wings Rockfeste v Očovej vystúpia Desmod, Alkehol i Brichta - Na letisku pri obci Očová sa premiérovo uskutoční letné hudobné podujatie Wings Rockfest...


Alkehol:
RECENZE: Písničkový tuplák Alkeholu je průvodcem na dvacetiletém tahu - ireport.cz


Alkehol:
Alkehol: Ke kalhotkám přidáme na web i boxerky - denik.cz


Alkehol:
Alkehol zpívají o „chlastu“ už 20 let, oslaví to turné i albem - ireport.cz


Alkehol:
ALKEHOL 20 LET NA TAHU - Tuplák 2CD všech nejlepších kousků… Skupina ALKEHOL letos slaví 20 let svojí existence. ...


Alkehol:
Noc plná hvězd s Mr. Big a Pro-Pain, Basinfirefest s Ill Niño, Benátská noc
s Clawfinger
- muzikus.cz


 

Alkehol

Fanúšikov: 27



A B C Č D E F G H CH I J K L Ľ M N O P Q R S Š T U V W X Y Z Ž



ako:
Alkehol - Zahradní ( komplet )
Alkehol - Zahradní ( komplet )

tlač

edituj
Pesničku videlo 2744 návštevníkov.

Kvalita tabov : bez hodnotenia
Hodnotilo ľudí: 0 ohodnoť aj ty
Prispievateľ:

Chosse
sloka: G C G Emi C G


ref.: Ami C G


Solo začátek skladby

e-----------------------------------------

h----------8------------------------------

g-777777-9---9-7------------7-------------

D-----------------999999-10---9-----------

A-----------------------------------------

E-----------------------------------------





Solo konec skladby

e-----------------------------------------

h-----------------------------------------

g---------4-5-4-------4--5/7-5-4----------

D-/5--5-7-------7-5--------------5--------

A-------------------7---------------------

E-----------------------------------------



e-----------------5------------8/10-8-7---

h-----------5-7-8---8-7-5-8--8----------8-

g-----4-5-7-------------------------------

D-5-7-------------------------------------

A-----------------------------------------

E-----------------------------------------



e-/10--8--7-8-7---------------------------

h--------------88--10-8---10-8------------

g----------------------9-7----9-7-9-7-----

D-------------------------------------99--

A-----------------------------------------

E-----------------------------------------



e----------------------10-8-7-8-7---------

h---------8-10-8-8-8--------------7-7-----

g-----7-9---------------------------------

D-7-9-------------------------------------

A-----------------------------------------

E-----------------------------------------


e----------8------------------------------

h-777777-9---9-7------------7-------------

g-----------------999999-10---9-----------

D-----------------------------------------

A-----------------------------------------

E-----------------------------------------


Venku krásně slunce pálí
kampak asi půjdeme
do zahrádky, co je tam v dáli,
tak si pěkně sedneme
poručíme si něco k pití
a na zub taky můžeme
když to slunce pěkně pálí
tak si to tu užijeme - jó

Ty jsi moje velká láska
tebe já mám nejraděj
v tobě se mi pěkně pije
a to není beznaděj
nejdřív si dám malej předkrm,
aperitiv tadky dám
apotom po hlavním jídle
moučník přece nevynechám

Pane vrchní, jedno pivo
hned za ním druhý, třetí
pak přidáme čtvrtý, pátý
šestý, sedmý a osmý
odpoledne bude prima,
nos na to dobrej mám
tak rychle roznášejte,
ať desátý v sobě taky mám

Výčepní lihovina aperitiv nahradí
možná je to klukovina,
ale mně to nevadí
hlavním jídlem bude víno,
ročník dvacet, ten mám rád
a když jsme u těch čísel,
tak si jich stejně
asi tolik dám

Na moučník už se těším,
borovičku, tu si dám
zapiju ji něčim ostrým,
slivovici, tu tu mám
bourbon, ten by neměl chybět,
před sebou už ho vlastně mám
a rumíček na cestu domů,
ať se po ní nemotám

Venku krásně slunce pálí…

 
»
Tvoje obľúbené položky
Tvoje obľúbené položky
»
Nové albumy interpreta
Nové albumy interpreta
3xCD Alkehol Platinum collection
3xCD Platinum
collection
CD Alkehol R.u.m.
CD R.u.m.
CD Alkehol Do bezvedomi
CD Do bezvedomi
2xCD Alkehol 20 let na tahu
2xCD 20 let na tahu
CD Alkehol Pojdme se napit
CD Pojdme se napit
CD Alkehol Odpocivej v pokoji ...
CD Odpocivej v
pokoji ...

»
Najnovšie videá
Najnovšie videá

Alkehol - Alkehol [Full Album] {1992}

Alkehol - Vyprošťovák

Alkehol - Třináctá komnata

Alkehol - Casanova

Alkehol - Skvělej den

Alkehol - Fandíme
»
Najnavštevovanejšie piesne
Najnavštevovanejšie piesne
V Bumbaru solo - taby

Travičko zelená - taby

Radek - akordy a text

Buráky - akordy a text

Ruty šuty - akordy a text

Pivo dělá hezká těla - akordy a text

Zmaštěnej - taby

Non stop - akordy a text

ŽIvot je krátkej - akordy a text

Blondýna - akordy a text

viac




home | interpreti | register piesní | cd & dvd shop | pripomienky/nápady | kontakt | ochrana údajov | inzercia
Copyright © Pavol Bacigál, 2000-2017. Všetky práva vyhradené.
TOPlist