Charlie Straight

piesne (61)

  texty (48) / preklady (10)
  akordy (22) / taby (2)
  noty (0) / slideshow (0)

články (65)
fotogaléria
diskusia
videá
diskografia
v obchode
odkazy
koncerty
sťahuj



pridaj vlastný článok

Charlie Straight:
Charlie Straight se rozpadli: Pánové ohlásili blíže neurčenou pauzu - musicserver.c... - musicserver.cz


Charlie Straight:
T-music Back to School se objeví již v úterý v Pardubicích - musicserver.c... - musicserver.cz


Charlie Straight:
T-music Back to School se v Praze odehraje už ve čtvrtek - musicserver.c... - musicserver.cz


Ahmed Má Hlad:
Festivalový víkend: bylo to krásné a nebylo toho dost - Prago Union | na serveru Lidovky.cz | aktuální zprávy 6. září 2013 7:00 | Lidov... - lidovky.cz


Alphaville:
Buchlovské hudební léto slaví 15. let - Již popatnácté se v zámeckém amfiteátru v Buchlovicích uskuteční celoletní fest... - vichr.cz


A Banquet:
Čarodějáles láká na The Subways, Pražský výběr nebo Wanastowi Vjecy - Čarodějáles láká na The Subways, Pražský výběr nebo Wanastowi Vjecy];" style="di... - IREPORT


Astronautalis:
Astronautalis v Česku předvede, jak zní fúze indie rocku a hip hopu - Astronautalis v Česku předvede, jak zní fúze indie rocku a hip hopu];" target="_blank... - IREPORT


A Banquet:
Okoř se šťávou 2013: Mandrage, David Koller, Charlie Straight nebo UDG - Okoř se šťávou 2013: Mandrage, David Koller, Charlie Straight nebo UDG];" style="disp... - IREPORT


Lucie Bílá:
Rozdali hudobné ceny Anděl - Objavom roka sa stalo zoskupenie Zrní, ktoré sa v lete predvedie aj na festivale Pohoda...


A Banquet:
Žebřík už tento pátek, Oslavu zahájí Celeste a završí Nightwork - Už 15. března se v Plzni sejde tuzemská hudební elita na udílení cen Žebřík. Ve... - ireport.cz


 

Charlie Straight

Fanúšikov: 14



A B C Č D E F G H CH I J K L Ľ M N O P Q R S Š T U V W X Y Z Ž



ako:
Charlie Straight - How Do You Like My Earrings?
Charlie Straight - How Do You Like My Earrings?

tlač

edituj
Rok vzniku: 2012
Pesničku videlo 2627 návštevníkov.

Kvalita tabov : bez hodnotenia
Hodnotilo ľudí: 0 ohodnoť aj ty
Prispievateľ:

Laika
  *** Autor textu: Albert Černý *** Autor hudby: Charlie Straight
VERSE
e|-----------------------------------|-----------------------------------|
B|-----------------------------------|-----------------------------------|
G|-----------------------------------|-----------------------------------|
D|-----------------------------------|-----------------------------------|
A|--------------6-6-6-4-4-4-4-4-4-4--|--------------6-6-6-4-4-4-4-4-4-4--|
E|--4-4-4-2-2-2----------------------|--4-4-4-2-2-2----------------------|

e|-----------------------------------|-----------------------------------|
B|-----------------------------------|-----------------------------------|
G|-----------------------------------|-----------------------------------|
D|-----------------------------------|-----------------------------------|
A|--------------6-6-6-4-4-4-4-4-4-4--|--------------6-6-6-4-4-4-4-4-4-4--|
E|--4-4-4-2-2-2----------------------|--4-4-4-2-2-2----------------------|


e|-----------------------------------|-----------------------------------|
B|-----------------------------------|-----------------------------------|
G|-----------------------------------|-----------------------------------|
D|-----------------------------------|-----------------------------------|
A|--------------6-6-6-4-4-4-4-4-4-4--|--------------6-6-6-4-4-4-4-4-4-4--|
E|--4-4-4-2-2-2----------------------|--4-4-4-2-2-2----------------------|

e|-----------------------------------|-----------------------------------|
B|-----------------------------------|-----------------------------------|
G|-----------------------------------|-----------------------------------|
D|-----------------------------------|-----------------------------------|
A|--------------6-6-6-4-4-4-4-4-4-4--|--------------6-6-6-4-4-4-4-4-4-4--|
E|--4-4-4-2-2-2----------------------|--4-4-4-2-2-2----------------------|

PRE-CHORUS
e|-----------------------------------|-----------------------------------|
B|-----------------------------------|-----------------------------------|
G|-----------------------------------|-----------------------------------|
D|-----------------------------------|-----------------------------------|
A|--2-2-2-2-2-2-2-2-2-2-2-2-2-2-2-2--|--5-5-5-5-5-5-5-5-7-7-7-7-7-7-7-7--|
E|-----------------------------------|-----------------------------------|

e|-----------------------------------|-----------------------------------|
B|-----------------------------------|-----------------------------------|
G|-----------------------------------|-----------------------------------|
D|-----------------------------------|-----------------------------------|
A|-----------------------------------|-----------------------------------|
E|--2-2-2-2-2-2-2-2-2-2-2-2-2-2-2-2--|--2-2-2-2-2-2-2-2-2-2-2-2-2-2-2-2--|

INTERLUDE

e|-----------------------------------|-----------------------------------|
B|-----------------------------------|-----------------------------------|
G|-----------------------------------|-----------------------------------|
D|-----------------------------------|-----------------------------------|
A|-----------------------------------|-----------------------------------|
E|--7-------------7-6---6-4---4-2----|-----------------------------------|

 
»
Tvoje obľúbené položky
Tvoje obľúbené položky
»
Nové albumy interpreta
Nové albumy interpreta
6

»
Najnovšie videá
Najnovšie videá

Charlie Straight - How Do You Like My Ea

Charlie Straight - How Do You Like My Ea

Charlie Straight Brno 27.6.2013 How Do Y

Charlie Straight - How Do You Like My Ea

Charlie Straight - How Do You Like My Ea

Charlie Straight - How do you like my ea
»
Najnavštevovanejšie piesne
Najnavštevovanejšie piesne
Your House - akordy a text

Upside Down - akordy a text

Rain - akordy a text

School Beauty Queen - akordy a text

Coco - akordy a text

Try Some Stuff You Don’t Think You Should - akordy a text

Bathroom Song - akordy a text

Someone with a slow heartbeat - akordy a text

Your House - text

Your house - preklad

Platonic Johny - akordy a text

Love Factory - akordy a text

Sometimes I Fall - akordy a text

School Beauty Queen 2 - akordy a text

Too Many Knives - akordy a text

Shall We Have a Baby - text

Try Some Stuff You Don’t Think You Should - text

Nothing - akordy a text

Rain - preklad

In The Morning - akordy a text

viac




home | interpreti | register piesní | cd & dvd shop | pripomienky/nápady | kontakt | ochrana údajov | inzercia

TOPlist