Jaromír Nohavica

piesne (871)

  texty (616) / preklady (97)
  akordy (505) / taby (122)
  noty (10) / slideshow (0)

články (222)
fotogaléria
diskusia
videá
diskografia
v obchode
odkazy
koncerty
sťahuj



pridaj vlastný článok

Jaromír Nohavica:
Foto: Nohavica v Dubline a Londýne - Fotografie z krátkého turné do Velké Británie a Irska - koncerty v Londýně a Dublinu. Hos... - nohavica.cz


Jaromír Nohavica:
Svou káru táhnem dál: Jaromír Nohavica a Kapela - Jaromír Nohavica autor: Česká televize zvětšit obrázek Svou káru táhnem dál: Jaromí... - scena.cz


Petr Hapka:
JAREK NOHAVICA ZPÍVÁ PÍSEŇ PRO HAPKU - Jaromír Nohavica zhudebnil a nazpíval text Michala Horáčka věnovaný Petru Hapkovi. Mic... - youtube.com


Jaromír Nohavica:
Sarkastická Nohavicova pieseň unikla na internet: Drsná provokácia slovenských
hokejistov!
- Sarkastická Nohavicova pieseň unikla na internet: Drsná provokácia slovenských hokejistov... - cas.sk


Jaromír Nohavica:
Nohavica zložil skladbu pre slovenských hokejistov - Český pesničkár Jaromír Nohavica predstavil počas tohtotýždňového turné v Bratislave špec...


Jaromír Nohavica:
Boris Urbánek píše s Nohavicou operu o Juditě - Jarek Nohavica Operu na motivy starozákonního příběhu o Juditě, známé ze slavného o... - novinky.cz


Korben Dallas:
Valašský špalíček ohlašuje samé písničkáře - DNES | Autor: Libor Galia | sekce: festivaloviny Valašský špalíček 2013, ... - muzikus.cz


Jaromír Nohavica:
Liberec, Chomutov, Teplice. Nohavica opět pobaví sever - Jarek Nohavica. Severní Čechy - Máte vstupenky? Ne? Ale ony už se nám ty zážitky rychl...


Karel Kryl:
Nohavica hral a spieval Kryla. K jeho nedožitým sedemdesiatinám - Nohavica hral a spieval Kryla. K jeho nedožitým sedemdesiatinám Pr i počúvaní priam... - sme.sk


Jaromír Nohavica:
Do prodeje jdou další lístky na pražské koncerty Jaromíra Nohavici - musicserver.c... - musicserver.cz


 

Jaromír Nohavica

Fanúšikov: 258



A B C Č D E F G H CH I J K L Ľ M N O P Q R S Š T U V W X Y Z Ž



ako:
Jaromír Nohavica - Darmoděj
Jaromír Nohavica - Darmoděj

tlač

edituj
Rok vzniku: 1988
Poznámka: - koncertní verze

Pesničku videlo 14548 návštevníkov.

Kvalita tabov : bez hodnotenia
Hodnotilo ľudí: 0 ohodnoť aj ty
Prispievateľ:

akili-washamani
  *** Autor textu: Jaromír Nohavica *** Autor hudby: Jaromír Nohavica
Tvořeno podle verze z koncertu v Ostravě 2006: http://www.youtube.com/watch?v=EaadAK72kWs (Doporučuji poslechnout) ;)

SÓLO

e|--8-------------|-7p8o7/5-5o--|-3---1-------|----0t1-(0)--|------10-8-6-|

h|-(10)-----10----|-------------|---1---1-3---|----1---(1)--|---3---------|

g|-(9)----9----9--|-------------|-----------0-|---0---------|--(3)-10-9-7-|

D|-(10)-10--------|-------------|-0-----------|-2-----------|---3---------|

A|--0-------------|-------------|-------------|-------------|-1-----------|

E|----------------|-0-----------|-------------|-------------|-------------|



e|---5-5-5-5-|-------4--4--|------5--||

h|-----------|---3--(3)(3)-|-----5---||

g|---5-5-5-5-|--(3)--4--4--|----5----||

D|-----------|---3-2-------|--(7)----||

A|-0---------|-1-----------|--0------||

E|-----------|-------------|---------||


SLOKA

e|-----5---5---|-----7---7---|-8------5-----|-7-------7---|-----5---5---|

h|-----5---5---|-----8---8---|------5---5---|---8---8---8-|-----5---5---|

g|---5---5---5-|---9---9---9-|----5---------|-----9-------|---5---5---5-|

D|-------------|-------------|--------------|-------------|-------------|

A|-0-----------|-------------|-0------------|-------------|-0-----------|

E|-------------|-0-----------|--------------|-0-----------|-------------|


C G
e|-----7---7---|-8------5-----|-7---------|-----0---0---|-------------|

h|-----8---8---|------5---5---|---8-------|-----1---1---|-----0---0---|

g|---9---9---9-|----5---------|-----9--7--|---0---0---0-|-----0---0---|

D|-------------|--------------|-----------|-------------|---0---0---0-|

A|-------------|-0------------|-----------|-3-----------|-------------|

E|-0-----------|--------------|-0---------|-------------|-3-----------|



Ami Emi F D#dim
e|-------------|-------------|---------1----|-----2---2---||

h|-----1---1---|-----0---0---|-----1---1----|-----1---1---||

g|-----2---2---|-----0---0---|-----2-----2--|---2---2---2-||

D|---2---2---2-|---2---2---2-|---3---3------|-1-----------||

A|-0-----------|-------------|--------------|-------------||

E|-------------|-0-----------|-1------------|-------------||



KONEC1 (s mezihrou)

E/E7 Mezihra
e|------------(0)||-----5---5---|-----5---5---||

h|-----0---3--(0)||-----5---6---|-----5---6---||

g|-----1---1---1-||---5---5---5-|---5---5---5-||

D|---2---2-------||-------------|-------------||

A|---------2-----||-0-----------|-0-----------||

E|-0-----------0-||-------------|-------------||



KONEC2
E7 Ami Ami
e|-----4---------4--||--------(0)| |-----------(0)|

h|-----3---------3--||-----0---1-| |------0-----1-| Fantazii s Ami se meze nekladou :)

g|---4---4---4--(4)-||-----2---2-| Popř: |----2---2--(2)|

D|-2-----------2----||---2---2---| |---2-----2----|

A|---------2--------||-0---------| |-0------------|

E|------------------||-----------| |--------------|




REFRÉM:

Ami Emi C G Ani F D#dim F7
e|---0-0--|---0-0--|---0-0--|---3-3--|---0-0--|---1-1--|---2-2--|---0-0-|

h|---1-1--|---0-0--|---1-1--|---0-0--|---1-1--|---1-1--|---1-1--|---3-3-|

g|---2-2--|---0-0--|---0-0--|---0-0--|---2-2--|---2-2--|---2-2--|---1-1-|

D|--------|--------|--------|--------|--------|--------|-1------|-------|

A|-0------|--------|-3------|--------|-0------|--------|--------|-------|

E|--------|-0------|--------|-3------|--------|-3------|--------|-0-----|



Ami Emi C G Ani F D#dim F7
e|---0-0--|---0-0--|---0-0--|---3-3--|---0-0--|---1-1--|---2-2--|--------4--||

h|---1-1--|---0-0--|---1-1--|---0-0--|---1-1--|---1-1--|---1-1--|-----3-(3)-||

g|---2-2--|---0-0--|---0-0--|---0-0--|---2-2--|---2-2--|---2-2--|---4---(4)-||

D|--------|--------|--------|--------|--------|--------|-1------|-2---------||

A|-0------|--------|-3------|--------|-0------|--------|--------|-----------||

E|--------|-0------|--------|-3------|--------|-3------|--------|-----------||


Pořadí hraní:

Sólo 2x
Sloka
Konec1
Sloka
Konec2
Refrém

Sloka
Konec1
Sloka
Konec2
Refrém

Sloka
Konec2
Refrém
Sólo = Konec



Poznámky (Neboli popisky i pro méně zkušené kytaristy, co z odposlechu neví jak to správně zahrát):

V sólu 7p8o7/5-5o na první struně je myšleno:Jednou drnkneme a to v 7 poloze, uděláme příraz na 8, silnější odtrh zpět na 7, skluz na 5 (aby nám ta 5zněla) pak drnkneme po druhé a to v 5 poloze a pustíme (odtrhneme) aby se ozvala prázdná struna (0).

V sólu 0t1 znamená trilek, neboli příraz z 0 na 1 a odtrh zpět na 0.

V sólu při přechodu do 10 polohy je dobré udělat skluz a jít hned na baré s prostředníčkem nebo prsteníčkem místo ukazovákem.

Poslední takt, akord v sólu, se hraje rozloženě, ale rychleji. viz. poslech.

Polohy zapsané v kulatých závorkách můžete nebo nemusíte hrát, stačí třeba jen tišeji, než ostatní.


Inspiraci jsem bral jak z tabů co jsem našel na netu, tak z odposlechu a zpěvníku. Jestli bude zájem, budu přidávat další taby od Nohavici.

 
»
Tvoje obľúbené položky
Tvoje obľúbené položky
»
Nové albumy interpreta
Nové albumy interpreta
CD Nohavica Jaromir Tenkrat-nostalgie 90 let
CD Tenkrat-nostalgi
e 90 let
CD Nohavica Jaromir Divne stoleti
CD Divne stoleti
4xCD Nohavica Jaromir Box [mikym./3cunici/darmodej/divne stole
4xCD Box
[mikym./3cunici/
darmodej/divne
stole
CD Nohavica Jaromir Tak me tu mas
CD Tak me tu mas
BD Nohavica Jarek V lucerne (blu-ray)
BD V lucerne
(blu-ray)
2xCD+DVD Nohavica Jaromir V lucerne
2xCD+DVD V lucerne

»
Najnovšie videá
Najnovšie videá

Jaromír Nohavica - Darmoděj (celý album)

Nohavica - Darmodej

Jaromír Nohavica - 13 Darmoděj

Jaromir Nohavica - Darmoděj

Darmoděj

Jaromir Nohavica - Darmoděj
»
Najnavštevovanejšie piesne
Najnavštevovanejšie piesne
Křídla z mýdla - akordy

Kometa - akordy a text

Mám jizvu na rtu - akordy a text

Minulost - akordy a text

Hlídač krav - akordy a text

Dokud se zpívá - pro začátečníky - akordy a text

Zítra ráno v pět - Originál - akordy a text

U nás na severu - akordy a text

Mám jizvu na rtu - doplněno - akordy

Kříž svůj neseme - akordy

viac




home | interpreti | register piesní | cd & dvd shop | pripomienky/nápady | kontakt | ochrana údajov | inzercia
Copyright © Pavol Bacigál, 2000-2017. Všetky práva vyhradené.
TOPlist