The Paranoid

piesne (53)

  texty (39) / preklady (0)
  akordy (8) / taby (12)
  noty (0) / slideshow (0)

články (16)
fotogaléria
diskusia
videá
diskografia
v obchode
odkazy
koncerty
sťahuj



pridaj vlastný článok

Asenth:
Finále Rockovej maturity 2016 preverí tvrdosť kategórie Hard & Heavy - včera o 17:30 | redakcia Súťaž neprofesionálnych hudobníkov Rocková maturita sa blíži ... - zoznam.sk


Chinaski:
Hudobníci budú na TOPFEST-e skladať rockovú maturitu. V porote sú aj Zuzana
Smatanová, či Polemic!
- Published by MUSIC ZONE on 24. marca 2016 | Komentáre vypnuté na Hudobníci budú na TOPFES... - music-zone.eu


The Paranoid:
Na Rock for People prídu aj The Paranoid - Na český festival Rock for People príde aj slovenská kapela The Paranoid. Do programu pod...


Smola A Hrušky:
Smola a Hrušky a The Paranoid odpálili turné vypredaným halloweenskym koncertom! - ... - livemusic.sk


The Paranoid:
Slovenští Paranoid hosty Rockle - Paranoid a jejich deska Sedem - Foto: Jiří Matějů Paranoid a jejich deska SedemFoto: J... - rozhlas.cz


Arakain:
Co vychází v březnu 2014: přehled novinek - Co vychází v březnu: přehled novinek];" style="display: none;">  ... - IREPORT


The Paranoid:
Skupina The Paranoid má nový album a klip k piesni Nikdy nezabudnem - ... - spravy.pozri.sk


The Paranoid:
Skupina The Paranoid sa ocitla na psychiatrii - Na psychiatrickom oddelení v Prešove koncom minulého roka náhle hospitalizovali Igora Bel...


Black Sabbath:
Paranoid, Iron Man nebo War Pigs naživo: přijedou Black Sabbath - Paranoid, Iron Man nebo War Pigs naživo: přijedou Black Sabbath];" style="display: none;"... - IREPORT


The Paranoid:
The Paranoid - Dva svety - Slovenská kapela The Paranoid začíná nabírat na slávě i mimo svou zemi. Svým mixem em... - rockmag.cz


 

The Paranoid

Fanúšikov: 30



A B C Č D E F G H CH I J K L Ľ M N O P Q R S Š T U V W X Y Z Ž



ako:
The Paranoid - Búrka Sĺz [+solo]
The Paranoid - Búrka Sĺz [+solo]

tlač

edituj
Rok vzniku: 2012
Poznámka: Dva Svety! :) Prosím hodnotenie :)

Pesničku videlo 7498 návštevníkov.

Kvalita tabov :
Hodnotilo ľudí: 1 ohodnoť aj ty
Prispievateľ:

Daniell
  *** Autor textu: Igor Belaj *** Autor hudby: Roman Birkuš
The Paranoid-Búrka Sĺz
Ladenie (D,A,F,C,G,C)
INTRO
Gitara 2.
Začiatok vyhrávka tóny:Ais,A,D
Neskôr C,Ais,A,D

Intro
|------------------------------------------------
|------------------------------------------------
|------------------------------------------------
|14-14--10--10--7-7--12--12----------------------
|12-12--8---8---5-5--10--10----------------------
|------------------------------------------------

I.Sloha to isté čo intro

Refrén:

|-------------
|-------------
|-------------
|10--5--7--3--
|10--5--7--3--
|10--5--7--3--

Koniec Refrénu

|--------------
|--------------
|--------------
|7777-7777-7777
|7777-7777-7777
|7777-7777-7777

....Búrka Sĺz.

|------------------------------
|------------------------------
|------------------------------ 2x-Druhý krát bez bendingu a ide rytmus
|10-7-12----------------------- (tie isté akordy,pomôžte si video)
|8--5-10-12b-------------------
|------------------------------


Refrén

|-------------
|-------------
|-------------
|10--5--7--3-- 2x
|10--5--7--3--
|10--5--7--3--


Solo:
D|----------------------------
A|----------------------------
F|----------------------------
C|14------------------------- 2x
G|--15-14-12-14-15--------
C|----------------------------

D|----------------------------
A|----------------------------
F|---------------------------- 2x
C|15-------------------------
G|--15-14-12-14-15--------
C|----------------------------

D|---------------------------
A|---------------------------
F|12------------------------ 2x
C|---------------------------
G|--15-14-12-14-15-------
C|---------------------------

D|---------------------------
A|---------------------------
F|14------------------------ 2x
C|---------------------------
G|--15-14-12-14-15-------
C|---------------------------

D|----------------------------
A|----------------------------
F|----------------------------
C|14------------------------- 2x
G|--15-14-12-14-15--------
C|----------------------------

D|----------------------------
A|----------------------------
F|---------------------------- 2x
C|15-------------------------
G|--15-14-12-14-15--------
C|----------------------------

D|---------------------------
A|---------------------------
F|12------------------------ 2x
C|---------------------------
G|--15-14-12-14-15-------
C|---------------------------

D|-----------------------------------------------------
A|---------------------------12-13(nechať doznieť)
F|--------------------12-14-------------------------- [Pravdepodobne zle]
C|----------12-14-15--------------------------------
G|12-14-15------------------------------------------
C|-----------------------------------------------------

Doprovod cez sólo

|--------
|--------
|--------
|3-2-7-5-
|3-2-7-5
|3-2-7-5


..Búrka Sĺz,Búrka Sĺz,Búrka Sĺz..pripája sa gitara

|------------------------------------------------
|------------------------------------------------
|9/10\9---12/14\12--12/17\16---------------------
|xxxxxxxxxxxxxxxxxxxxxxxxxxx---------------------
|7/8\7---10/12\10---10/15\14---------------------
|-------------------------------------------------


Refrén


|-------------
|-------------
|-------------
|10--5--7--3-- 2x
|10--5--7--3--
|10--5--7--3--

Koniec refrénu

|-------------
|-------------
|-------------
|3-5----------
|3-5----------
|3-5----------

Záver (Clean Sound)

|---------------
|---------------
|12-7-9-5-------
|1O-5-7-3------
|---------------
|---------------

KONIEC
|-----
|-----
|-----
|7-
|7-nechať doznieť
|7-

 
»
Tvoje obľúbené položky
Tvoje obľúbené položky
»
Nové albumy interpreta
Nové albumy interpreta
CD Paranoid Tu a teraz
CD Tu a teraz
VINYL Paranoid Satyagraha [vinyl]
VINYL Satyagraha
[vinyl]
CD Paranoid Satyagraha
CD Satyagraha
CD The Paranoid Sedem
CD Sedem

»
Najnovšie videá
Najnovšie videá

The Paranoid - Búrka sĺz - Bratislava 25

The Paranoid - Búrka sĺz (cover)

The Paranoid - Búrka sĺz

The Paranoid - Búrka sĺz @ Ružomberok, d

The Paranoid - Búrka Sĺz MUSIC SUMMER Ru

The Paranoid, Búrka sĺz, 26.7.2012, Libe
»
Najnavštevovanejšie piesne
Najnavštevovanejšie piesne
Niekde tam - akordy a text

Zachráň ma - akordy

V útrobách - akordy a text

Smäd - akordy a text

Smäd - text

Únos - text

Niekde tam - akordy a text

Odkaz - text

Zachráň Ma - text

Búrka Sĺz - text

viac




home | interpreti | register piesní | cd & dvd shop | pripomienky/nápady | kontakt | ochrana údajov | inzercia
Copyright © Pavol Bacigál, 2000-2017. Všetky práva vyhradené.
TOPlist