Inekafe

piesne (418)

  texty (279) / preklady (0)
  akordy (149) / taby (121)
  noty (0) / slideshow (3)

články (167)
fotogaléria
diskusia
videá
diskografia
v obchode
odkazy
koncerty
sťahuj



pridaj vlastný článok

Inekafe:
Iné Kafe zahrá v Pieštanoch na City feste! - ... - livemusic.sk


Abraxas:
Votvírák – s novou vlnou předprodeje připlouvá i Pavol Habera & Team - 8 Duben 2017 David Nguyen Žádné komentáře Novinky Votvírák – s novou vlnou... - rockandpop.cz


Inekafe:
Inekafe ve Frýdku-Místku i s Forusem! - Kapela Inekafe se vydala na Mestá Ďaleké Klubtour 2016. Během tohoto turné navšt... - rockmag.cz


Chinaski:
Hudobníci budú na TOPFEST-e skladať rockovú maturitu. V porote sú aj Zuzana
Smatanová, či Polemic!
- Published by MUSIC ZONE on 24. marca 2016 | Komentáre vypnuté na Hudobníci budú na TO... - music-zone.eu


Inekafe:
Inekafe predstavili prvého hosťa európskeho turné - Legendárna skupina Inekafe začne rok 2015 vo veľkom štýle. Po vydaní nového albumu... - Žijeme hudbou


Inekafe:
Inekafe pripravujú nový album Nevhodný typ - Slovenská pop-punková skupina Inekafe pripravuje svoju siedmu štúdiovku, ktorá pones...


Inekafe:
Z Iné Kafe odišiel basgitarista Peter Fóra - Zo slovenskej pop-punkovej skupiny Iné Kafe odišiel jej dlhoročný člen a basgitarist...


Tomáš Bezdeda:
Jadranka či Kazík. Slávik končí, pozrite sa, kto u Slovákov bodoval pred
rokmi
- Jadranka či Kazík. Slávik končí, pozrite sa, kto u Slovákov bodoval pred rokmi ... - sme.sk


Inekafe:
Po rapovej prichádza rocková vojna: Vratko z Ine Kafe sa pustil do Zoči Voči - Po rapovej prichádza rocková vojna: Vratko z Ine Kafe sa pustil do Zoči Voči ... - aktuality.sk


Inekafe:
Festival Hrady CZ čeká víkend v Hradci nad Moravicí - Festival Hrady CZ čeká víkend v Hradci nad Moravicí];" style="display: none;">  ... - IREPORT


 

Inekafe

Fanúšikov: 147



A B C Č D E F G H CH I J K L Ľ M N O P Q R S Š T U V W X Y Z Ž



ako:
Inekafe - Veľkou palicou III
Inekafe - Veľkou palicou III

tlač

edituj
Pesničku videlo 3851 návštevníkov.

Kvalita tabov :
Hodnotilo ľudí: 1 ohodnoť aj ty
Prispievateľ:

AFBI
  *** Autor textu: Ine kafe *** Autor hudby: Ine kafe
Veľkou palicou III
(Bez udania dôvodu)

Intro/Verse:
e -----------------------------------------------------------
H -----------------------------------------------------------
G -------------4-4---------4-4-4-4-4--7----------------------
D ---4-4-4-4-4-4-4-4-4-3x--4-4-4-4-4--7----------------------
A ---4-4-4-4-4-2-2-4-4-----2-2-2-2-2--5----------------------
E ---2-2-2-2-2-----2-2---------------------------------------


Refrén:
e ----------------------------------------------------
H ----------------------------------------------------
G ------------9-9-9-9-9--11-11-11-11-11--7-7-7-7-7----
D -7-7-7-7-7--9-9-9-9-9--11-11-11-11-11--7-7-7-7-7--- 4x
A -7-7-7-7-7--7-7-7-7-7--9--9--9--9--9---5-5-5-5-5---
E -5-5-5-5-5-----------------------------------------

e ----------------------------------------------------------
H ----------------------------------------------------------
G --7-7-7-7-7-----------------------------------------------
D --7-7-7-7-7-----------------------------------------------
A --5-5-5-5-5-----------------------------------------------
E ----------------------------------------------------------


Verse:
e -----------------------------------------------------------
H -----------------------------------------------------------
G -------------4-4---------4-4-4-4-4--7----------------------
D ---4-4-4-4-4-4-4-4-4-3x--4-4-4-4-4--7----------------------
A ---4-4-4-4-4-2-2-4-4-----2-2-2-2-2--5----------------------
E ---2-2-2-2-2-----2-2---------------------------------------


Refrén:
e ----------------------------------------------------
H ----------------------------------------------------
G ------------9-9-9-9-9--11-11-11-11-11--7-7-7-7-7----
D -7-7-7-7-7--9-9-9-9-9--11-11-11-11-11--7-7-7-7-7--- 4x
A -7-7-7-7-7--7-7-7-7-7--9--9--9--9--9---5-5-5-5-5---
E -5-5-5-5-5-----------------------------------------


e ----------------------------------------------------------
H ----------------------------------------------------------
G --7-7-7-7-7-----------------------------------------------
D --7-7-7-7-7-----------------------------------------------
A --5-5-5-5-5-----------------------------------------------
E ----------------------------------------------------------

solo :

Vratko:
e -----------------------------------------------------------
H -----------------------------------------------------------
G -------------4-4-----4-4-4-4-4--7--------------------------
D ---4-4-4-4-4-4-4--3x-4-4-4-4-4--7--------------------------
A ---4-4-4-4-4-2-2-----2-2-2-2-2--5--------------------------
E ---2-2-2-2-2-----------------------------------------------


Refrén:
e ----------------------------------------------------
H ----------------------------------------------------
G ------------9-9-9-9-9--11-11-11-11-11--7-7-7-7-7----
D -7-7-7-7-7--9-9-9-9-9--11-11-11-11-11--7-7-7-7-7--- 4x
A -7-7-7-7-7--7-7-7-7-7--9--9--9--9--9---5-5-5-5-5---
E -5-5-5-5-5-----------------------------------------

e ----------------------------------------------------------
H ----------------------------------------------------------
G --7-7-7-7-7-----------------------------------------------
D --7-7-7-7-7-----------------------------------------------
A --5-5-5-5-5-----------------------------------------------
E ----------------------------------------------------------


Pravo na štatie live :) - Niak takto:P
Napísal AFBI...

 
»
Tvoje obľúbené položky
Tvoje obľúbené položky
»
Nové albumy interpreta
Nové albumy interpreta
6
DVD Inekafe Live in praha 2009
DVD Live in praha
2009
2xCD Ine Kafe 1995-2010 naj 15 rockov
2xCD 1995-2010 naj 15
rockov

»
Najnovšie videá
Najnovšie videá

In Kafe - Vekou palicou III

Ine Kafe - Velkou Palicou 2

In Kafe - Vekou palicou III

INEKAFE - Velkou palicou 3

INEKAFE - Vekou palicou II

Ine kafe velkou palicou 2
»
Najnavštevovanejšie piesne
Najnavštevovanejšie piesne
Mojich najlepších 15 rockov - akordy a text

Záverečná - akordy a text

Ráno - akordy a text

Špinavé objatie - akordy a text

Spomienky na budúcnosť - akordy a text

Ráno - 100% - akordy

Nezáujem - akordy a text

Ani minútu - akordy a text

Mojich najlepších 15 ro(c)kov - akordy a text

Čiernobiela - akordy a text

Pár sráčov bohatých - akordy a text

30.február - akordy a text

Ružová záhrada - akordy a text

Spomienky na budúcnosť - oprava - akordy a text

Právo na šťastie - akordy a text

Náš svet je pestrý - akordy a text

Čas beží (unplugged Mlynská dolina) - akordy a text

Dejavu - akordy a text

Pomozte mi so mnou - akordy a text

090x - akordy a text

viac




home | interpreti | register piesní | cd & dvd shop | pripomienky/nápady | kontakt | ochrana údajov | inzercia

TOPlist