Neposlušné Nanynky

piesne (8)

  texty (6) / preklady (0)
  akordy (1) / taby (2)
  noty (0) / slideshow (0)

články (0)
fotogaléria
diskusia
videá
diskografia
v obchode
odkazy
koncerty
sťahuj



pridaj vlastný článok




 

Neposlušné Nanynky

Fanúšikov: 0



A B C Č D E F G H CH I J K L Ľ M N O P Q R S Š T U V W X Y Z Ž



ako:
Neposlušné Nanynky - Punková Princezna - intro
Neposlušné Nanynky - Punková Princezna - intro

tlač

edituj
Pesničku videlo 4654 návštevníkov.

Kvalita tabov : bez hodnotenia
Hodnotilo ľudí: 0 ohodnoť aj ty
Prispievateľ:

Slamo
e-------------------0--3-3~5-5-------------------------------------------

h----------0--1--3------------------------0---1-0--1-------------0--1----

g--------2------------------------------2-----2-------2------2-----------

d-----2-------------------------------2-------2-----------4--------------

a--0---------------------------------------------------------------------

E------------------------------------------------------------------------



e------------------------------------------------------------------------

h---0-----0-------------0---0--------------1----1------------------------

g---0---2---0---------2-----2--0--2-----2-------2------------------------

d---0--------------2-----------------0----------2------------------------

a---------------3--------------------------------------------------------

E------------------------------------------------------------------------


Nieje to celé, kľudne to dokončite...




 
»
Tvoje obľúbené položky
Tvoje obľúbené položky
»
Nové albumy interpreta
Nové albumy interpreta

»
Najnovšie videá
Najnovšie videá

Neposlušné Nanynky - Punková princezna (

Neposlušné nanynky-Punková princezna

Neposlušné Nanynky - Punková princezna

Neposlušné nanynky-Punková princezna

Čertovy květy - Punková princezna (Nepos

Precedence Zkouška punková princezna (na
»
Najnavštevovanejšie piesne
Najnavštevovanejšie piesne



home | interpreti | register piesní | cd & dvd shop | pripomienky/nápady | kontakt | ochrana údajov | inzercia
Copyright © Pavol Bacigál, 2000-2017. Všetky práva vyhradené.
TOPlist