Tata Bojs

piesne (107)

  texty (92) / preklady (1)
  akordy (27) / taby (5)
  noty (0) / slideshow (0)

články (231)
fotogaléria
diskusia
videá
diskografia
v obchode
odkazy
koncerty
sťahuj



pridaj vlastný článok

Tata Bojs:
Tata Bojs oslavili Den otců v Cargo Gallery! Došlo na luskání prstů i
diskohrátky
- Vydáno před 14 hodinami | autor: Hana Bukáčková Facebook5 Twitter0 Google+0 Třetí č... - ireport.cz


Tata Bojs:
Tata Bojs a Zrní podporují recyklaci - Tata Bojs a Zrní podporují recyklaci Autor: Iva Boková 10.05.2016 Tisk Projekt Ekomp... - abradio.cz


Tata Bojs:
Plány Tata Bojs po Žebříku: benefiční koncert v Celetné i klip s Terezou
Voříškovou
- Vydáno 21.03.2016 | autor: redakce Facebook221 Twitter0 Google+0 Květen / Tata Bojs ... - ireport.cz


David Koller:
Nominovaní na cenu hudební kritiky APOLLO 2015 už jsou známí - Historicky pátý držitel ceny českých kritiků APOLLO bude zvolen na přelomu února a března ... - musicserver.cz


Tata Bojs:
Tata Bojs zverejnili videoklip - Česká kapela Tata Bojs zverejnila prostredníctvom služby YouTube videoklip ku skladbe Rad...


Tata Bojs:
Kapela Tata Bojs do hudby vniesla kozmické prvky - var pianoVariables = { mode : "init_cookie",... - sme.sk


Tata Bojs:
Tata Bojs prídu do Bratislavy predstaviť novú farebnú štúdiovku A/B - Tata Bojs prídu do Bratislavy predstaviť novú farebnú štúdiovku A/B ... - ahudba.sk


Tata Bojs:
Tata Bojs vystúpia 21. novembra v Bratislave - Česká kapela Tata Bojs vystúpi 21. novembra v bratislavskom Ateliéri Babylon. Koncert sa ...


Tata Bojs:
Tata Bojs v "Sondě" baví sebe i tebe - Vydáno: 24.09.2015 09:23 v sekci Audio - Ondřej Selner SDÍLET: Na tuzemské hude... - musicserver.cz


Tata Bojs:
Nový album kapely Tata Bojs vyjde v októbri - Nový album kapely Tata Bojs vyjde v októbri ... - ahudba.sk


 

Tata Bojs

Fanúšikov: 4



A B C Č D E F G H CH I J K L Ľ M N O P Q R S Š T U V W X Y Z Ž



ako:
Tata Bojs - 2031
Tata Bojs - 2031

tlač

edituj
Pesničku videlo 4395 návštevníkov.

Kvalita tabov :
Hodnotilo ľudí: 1 ohodnoť aj ty
Prispievateľ:

komar42
SLOKA

E----------------------------------------
H----------------------------------------
G---7---10-------------------------------
D---7---10---8---10---5---7---8---10-----
A---5---8----8---10---5---7---8---10-----
E------------6---8----3---5---6---8------

Krasky a krasavci...

E-------------------------------------
H-------------------------------------
G-------------------------------------
D---------7-7-7-------5-5-5-----------
A---5-5-5-------3-3-3-----------------
E----------------------------3-3-3----

clovek se nestara a najednou...

E-------------------
H-------------------
G-------------------
D---5---7---8---10--
A---5---7---8---10--
E---3---5---6---8---

E----------------------------------------
H----------------------------------------
G---3---10-------------------------------
D---3---10---8---10---5---7---8---10-----
A---5---8----8---10---5---7---8---10-----
E------------6---8----3---5---6---8------

 
»
Tvoje obľúbené položky
Tvoje obľúbené položky
»
Nové albumy interpreta
Nové albumy interpreta
CD Tata Bojs A/b
CD A/b
LP12
LP12" Strana a
2xCD Tata Bojs Hity a city
2xCD Hity a city
2xCD+DVD Tata Bojs Lezata letna 2011 live
2xCD+DVD Lezata letna
2011 live
3xCD Tata Bojs Biorytmy (2cd+dvd)
3xCD Biorytmy
(2cd+dvd)
2xCD+DVD Tata Bojs Nanoalbum max
2xCD+DVD Nanoalbum max

»
Najnovšie videá
Najnovšie videá

Tata Bojs - 2031

Tata bojs - Usínací/2031 (vinyl version)

Tata Bojs - 2031 (Live@Divadlo v Celetné

Tata Bojs - Olomouc - 6.12.2012 - 2031

Tatabojs 2031 Rožmberk 2011

Tata Bojs zdravice ze studia SONO
»
Najnavštevovanejšie piesne
Najnavštevovanejšie piesne
Pěšáci - akordy a text

Radioamatér - akordy

Antikvariát - akordy

Virtuální duet - akordy a text

Pěšáci - akordy a text

Tanečnice - akordy a text

Šťastnější (přesněji) - akordy

Filmařská - akordy

Opakování - akordy a text

Tanečnice - akordy

viac




home | interpreti | register piesní | cd & dvd shop | pripomienky/nápady | kontakt | ochrana údajov | inzercia
Copyright © Pavol Bacigál, 2000-2017. Všetky práva vyhradené.
TOPlist