Xindl X

piesne (106)

  texty (78) / preklady (0)
  akordy (49) / taby (16)
  noty (0) / slideshow (0)

články (93)
fotogaléria
diskusia
videá
diskografia
v obchode
odkazy
koncerty
sťahuj



pridaj vlastný článok

Xindl X:
Multimilionář XINDL X za dva týdny vyráží na turné. - První dva pražské koncerty jsou již vyprodané! V Bratislavě zahraje 5. & 6. dubna, v Nové... - Turner


Xindl X:
Xindl X vyrazí na turné s kapelou i jen s kytarou - Xindl X vyrazí na turné s kapelou i jen s kytarou Autor: Iva Boková 01.11.2016 Tisk ... - abradio.cz


Xindl X:
XINDL X príde po prvýkrát s celou kapelou na Slovensko. - XINDL X na Slovensku hrá veľmi rád. A slovenskí fanúšikovia si to uvedomujú. Posledné rok... - M.Kucera


Xindl X:
Xindl X sa vracia na slovenské turné a ty môžeš vyhrať 3×2 vstupenky! - 4. októbra 2016 marekmuzika 8 Comments Xindl X vo svojich pesničkách často a rád provok... - music-zone.eu


Xindl X:
Xindl X: Forma oligarchie může být stejně nebezpečná jako komunismus - Písničkář Xindl X (37) přichází s novým albem. Jmenuje se Kvadratura záchranného kruhu a ... - novinky.cz


Xindl X:
Xindl X interview: V Česku se úspěch neodpouští, proto jsem napsal píseň o
poměřování pindíků
- Vydáno před 19 hodinami | autor: Jaroslav Noska Na nové desce Kvadratura záchranné... - ireport.cz


Shawn Mendes:
Nová alba: Xindl X, Shawn Mendes, Tři sestry či The Fellas - Blíží se konec roku a alba umělců výrazných jmen přicházejí na trh. V tomto týdnu upozorň...


Xindl X:
Xindl X upevňuje albem "Kvadratura záchranného kruhu" svoji pozici - Vydáno: 23.09.2016 09:00 v sekci Recenze - Milan Menčík Xindl X si na domácí hudební scé... - musicserver.cz


Xindl X:
RECENZE: Xindl X hází topícím se lidem záchranný kruh - Vydáno 23.09.2016 | autor: Hana Poláchová Páté studiové album Xindla X obsahuje de... - ireport.cz


Udg:
Během koncertu s Xindlem X a Voxelem pokřtili UDG své CD - Klatovy /FOTOGALERIE/ – Fanoušci Xindla X, Voxela a skupiny UDG si v sobotu přišli na své... - denik.cz


 

Xindl X

Fanúšikov: 24



A B C Č D E F G H CH I J K L Ľ M N O P Q R S Š T U V W X Y Z Ž



ako:
Xindl X - Hollywood
Xindl X - Hollywood

tlač

edituj
Poznámka: (lepší)

Pesničku videlo 4874 návštevníkov.

Kvalita tabov :
Hodnotilo ľudí: 2 ohodnoť aj ty
Prispievateľ:

Abii44
Intro:

Dmi Bb C Ami
e|--------1h3p1p0|-------------|---------------|-------------|
B|------3--------|-3-----------|------------6~-|-------------|
G|----2----------|-------3~~~~-|--------5h7----|-------5~~---|
D|-0-------------|-------------|----5/7--------|---5h7-------|
A|---------------|----1~~~~----|-3-------------|-0-----------|
E|---------------|-------------|---------------|-------------|

Bb Bb A A7
e|---------------|-------------|--------------|-------------|
B|---------------|-------------|--------------|-------------|
G|-------3h5p3\2-|-------------|--------2-----|-------------|
D|---3/5---------|-5--3~~------|--2-3-5---3-2-|-------------|
A|-1-------------|-------------|-(0)----------|-5--4~~------|
E|---------------|-------------|--------------|-------------|


Sloka: (Brnkáte na 2. a 4. dobu)

Dmi Bb C Ami
e|----1----1----|----1----1----|----3----3----|----0----0----|
B|----3----3----|----3----3----|----5----5----|----1----1----|
G|----2----2----|----3----3----|----5----5----|----2----2----|
D|----0----0----|----3----3----|----5----5----|----2----2----|
A|--------------|--------------|--------------|---(0)--(0)---|
E|--------------|--------------|--------------|--------------|

Bb Bb/H A A7
e|----1----1----|----1----1----|----0----0----|----0----3----|
B|----3----3----|----3----3----|----2----2----|----2----2----|
G|----3----3----|----4----4----|----2----2----|----0----2----| 2x
D|----3----3----|----3----3----|----2----2----|----2----2----|
A|--------------|--------------|---(0)--(0)---|---(0)--(0)---|
E|--------------|--------------|--------------|--------------|

Bb Gmi F C
e|----6----6----|----3----3----|----1----1----|----0----0----|
B|----6----6----|----3----3----|----1----1----|----1----1----|
G|----7----7----|----3----3----|----2----2----|----0----0----|
D|----8----8----|----5----5----|----3----3----|----2----2----|
A|----8----8----|----5----5----|----3----3----|----3----3----|
E|----6----6----|----3----3----|----1----1----|---(3)--(3)---|

Bb Bb/H A A7
e|----1----1----|----1----1----|----0----0----|----0----3----|
B|----3----3----|----3----3----|----2----2----|----2----2----|
G|----3----3----|----4----4----|----2----2----|----0----2----|
D|----3----3----|----3----3----|----2----2----|----2----2----|
A|--------------|--------------|---(0)--(0)---|---(0)--(0)---|
E|--------------|--------------|--------------|--------------|

Bb Gmi F C
e|----6----6----|----3----3----|----1----1----|----0----0----|
B|----6----6----|----3----3----|----1----1----|----1----1----|
G|----7----7----|----3----3----|----2----2----|----0----0----|
D|----8----8----|----5----5----|----3----3----|----2----2----|
A|----8----8----|----5----5----|----3----3----|----3----3----|
E|----6----6----|----3----3----|----1----1----|---(3)--(3)---|

Bb Bb/H A(na 1. a 3. dobu) A
e|----1----1----|----1----1----|--0-----5-----|--------------|
B|----3----3----|----3----3----|--2-----5-----|--10----14----|
G|----3----3----|----4----4----|--2-----6-----|--9-----14----|
D|----3----3----|----3----3----|--2-----7-----|--7-----14----|
A|--------------|--------------|--0-----7-----|--------12----|
E|--------------|--------------|--------5-----|--------------|

Bridge:

e|----5h6p5--3--1h3p1--0~~-----|
B|----5h6p5--3--1h3p1--0~~-----|
G|-----------------------------|
D|-----------------------------|
A|-----------------------------|
E|-----------------------------|

Refrén:

[Bb]Jó, na [C]takovej film [A] bych tě někdy [Dmi]chtěl vzít,
[Bb]v temnym [C]sále se [A]přežrat popcornem [Dmi]
a kolou se [Bb]spít a ději [C]na plátně se [A]pohrdavě [Dmi]smát
a říkat [Bb]vole vole to je [C]Hollywood, [C]vole vole to je [Dmi]Hollywood,
[Bb]vole vole to by [Bb/H]se v reálnym životě [A]nikdy nemohlo [Dmi]stát.

Bb/H:

nebo
e|-----------------------------|
B|-----6--------------3--------|
G|-----7--------------4--------|
D|-----9--------------3--------|
A|-----8--------------2--------|
E|-----7-----------------------|


A pak se to jen pořád opakuje ;)

Kdybyste měli jakýkoli problém, napište na ondrej.rolecek@seznam.cz. Báj :)

 
»
Tvoje obľúbené položky
Tvoje obľúbené položky
»
Nové albumy interpreta
Nové albumy interpreta
CD Xindl-x Kvadratura zachranneho kruhu
CD Kvadratura
zachranneho
kruhu
5xCD Gott Karel Duety
5xCD Duety
2xCD Xindl-x Cechacek made
2xCD Cechacek made
2xCD+DVD Xindl X G2 acoustic stage/dvd
2xCD+DVD G2 acoustic
stage/dvd
2xCD+DVD Kryl Karel Karel kryl 70 - koncert - prazska lucern
2xCD+DVD Karel kryl 70 -
koncert -
prazska lucern
CD Xindl X Laska
CD Laska

»
Najnovšie videá
Najnovšie videá

Xindl X - Hollywood

Xindl X a Karel Gott Cool v Plote

Xindl X - Hollywood - Veveří 11.8.12

Xindl X - Hollywood

Xindl X Cool v plotě

MAHA4ALL - XINDL X - Hollywood
»
Najnavštevovanejšie piesne
Najnavštevovanejšie piesne
Popelka - akordy a text

V blbým věku - akordy a text

Cudzinka v tvojej zemi - akordy a text

V blbým věku - akordy a text

Na vodě - akordy

Barbína - akordy a text

Anděl - akordy a text

V blbým věku - text

Štědrý večer nastal - akordy a text

Chemie - akordy a text

viac




home | interpreti | register piesní | cd & dvd shop | pripomienky/nápady | kontakt | ochrana údajov | inzercia
Copyright © Pavol Bacigál, 2000-2017. Všetky práva vyhradené.
TOPlist