Drišlak

piesne (115)

  texty (101) / preklady (0)
  akordy (43) / taby (1)
  noty (0) / slideshow (0)

články (11)
fotogaléria
diskusia
videá
diskografia
v obchode
odkazy
koncerty
sťahuj



pridaj vlastný článok

Drišlak:
Huslistu z Drišľaku našli mŕtveho! - Huslistu z Drišľaku našli mŕtveho! Nez vestný huslista zo skupiny Drišľak sa ... - aktuality.sk


Drišlak:
Kvóty na hudbu sú štátom nariadená vtáčia chrípka - Ak slovutný slovenský parlament odhlasuje takýto nepríčetný zákon, s vykonávaním bude dos... - sme.sk


Drišlak:
Skupina Drišľak má za sebou 22 rokov fungovania - sme.sk


Pavel Bobek:
Zajtra začína Country Fest Rozmarín 2008 - 8. a 9. augusta v amfiteátri v Terchovej sa uskutoční 3. ročník festivalu Country Fest Roz...


Anawi:
Červeník: Na 43. ročníku Čechomor i Václav Neckář - ČERVENÍK: Na 43. ročníku dychovky,folklór, Čechomor i Václav Neckář Červeník 5. august...


Amphibios:
ČERVENÍK 2008 už 8.-10.augusta - ČERVENÍK 2008 - tento rok 8.-10.augusta Medzinár odné slávnosti spevu, hudby a tan...


Drišlak:
Česi a Slováci sa stretli na hraniciach pri Lipe bratstva - Česi a Slováci sa stretli na hraniciach pri Lipe bratstva Drietoma 14. júla (TA...


Drišlak:
Fotky z koncertu skupiny Drišľak v New Yorku - nemcok.sk


Drišlak:
Ján Jakubčín z Drišľaku – exot alebo suchár - V parlamente sa javí ako suchár, na javisku ako exot. Je to tak, nováčikom zastupiteľstva... - frenky.sk


Pavel Bobek:
Country Lodenica predstaví špičku českej a slovenskej scény - gregi.net


 

Drišlak

Fanúšikov: 5



A B C Č D E F G H CH I J K L Ľ M N O P Q R S Š T U V W X Y Z Ž



ako:
Drišlak - Slovensko Naše
Drišlak - Slovensko Naše

tlač

edituj
Poznámka: Potam sa to vlastne opakuje. Je to iba vymyslene z hlavy ale myslím že sa to podobá

Pesničku videlo 4334 návštevníkov.

Kvalita tabov : bez hodnotenia
Hodnotilo ľudí: 0 ohodnoť aj ty
Prispievateľ:

PrcoO
E----1-1---------------------------------------------------
H--1----1-1-3-1--1-6-6-10-8-6-8-8-8-8-8-6-8-10-6-3-3-6-6-1-
G----------------------------------------------------------
D----------------------------------------------------------
A----------------------------------------------------------
E----------------------------------------------------------

E-------------------------------------------------------------
H-1-6-6-1-1-3-1-1-6-6-10-8-6-8-8-8-8-8-6-8-10-6-3-3-6-6-1-----
G-------------------------------------------------------------
D-------------------------------------------------------------
A-------------------------------------------------------------
E-------------------------------------------------------------

E--1-6-1-6-5-5-8-8-13-10-10-10-10-10-13-11-10-10-8-8-10-----
H-----------------------------------------------------------
G-----------------------------------------------------------
D-----------------------------------------------------------
A-----------------------------------------------------------
E-----------------------------------------------------------

E--------------------------------
H-10-10-10-13-11-10-10-8-8-6-----
G--------------------------------
D--------------------------------
A--------------------------------
E--------------------------------

 
»
Tvoje obľúbené položky
Tvoje obľúbené položky
»
Nové albumy interpreta
Nové albumy interpreta

»
Najnovšie videá
Najnovšie videá

Drišľak - Slovensko naše - foto Vít Srok

Drišľak - Domaša

Drišľak - Komplet

Kollárovci- Slovensko naše

Drišľak - Makarena

Honza Nedvěd v Drišlaku
»
Najnavštevovanejšie piesne
Najnavštevovanejšie piesne
Za rana - akordy a text

Slovensko naše - akordy a text

Drišľak - akordy a text

Domaša - akordy

Džube - akordy a text

Za rana - text

Repa - text

ZA RÁNA ZA ROSY TRÁVA SA KOSÍ - akordy

ANIČKA DUŠIČKA - akordy

Naco pujdzem domu - akordy a text

viac




home | interpreti | register piesní | cd & dvd shop | pripomienky/nápady | kontakt | ochrana údajov | inzercia
Copyright © Pavol Bacigál, 2000-2017. Všetky práva vyhradené.
TOPlist