Harlej

piesne (155)

  texty (133) / preklady (0)
  akordy (81) / taby (12)
  noty (0) / slideshow (0)

články (31)
fotogaléria
diskusia
videá
diskografia
v obchode
odkazy
koncerty
sťahuj



pridaj vlastný článok

Harlej:
VIDEO: Harlej tvrdí, že hodný holky chtějí zlý kluky. Hostem turné bude
zakázanÝovoce
- Vydáno včera | autor: Nicola Bernard Přesně před rokem slavila skupina Harlej kula... - ireport.cz


Harlej:
Harlej představí na podzimním turné novou píseň "Hodný holky zlý kluky chtěj" - Vydáno: 08.10.2016 18:15 v sekci Tiskové zprávy - Tisková zpráva SDÍLET: Přesně... - musicserver.cz


Harlej:
HARLEJ VYDAVÁ PAMÁTNÝ KONCERT NA DVD - pondělí, 11 duben 2016 17:25 Napsal(a) Jirka Mimra velikost písma zmenšit velikost písm... - musicweb.cz


Harlej:
Harlej vyráží na jarní turné s výročním DVD v zádech - Vydáno: 24.03.2016 11:24 v sekci Novinky - Milan Menčík SDÍLET: Harlej loni osl... - musicserver.cz


Ota Balage:
S deskou 'Na prodej' pomáhal Harleji i Ota Balage. Na turné vyrazí s Jaksi Taksi - S deskou "Na prodej" pomáhal Harleji i Ota Balage. Na turné vyrazí s Jaksi Taksi Vydán... - musicserver.cz


Harlej:
Skupina Harlej: Hity? Vytáhneme tabulky, proškrtáme je a šoupnem to tam - denik.cz


Harlej:
Nová hudební talk show ROCK OUT je v provozu od října - ireport.cz


Arakain:
Votvírák v Milovicích již popáté otevře letní festivalovou sezónu - ceskenoviny.cz


Arakain:
Votvírák láká na obrovské množství domácích kapel - novinky.cz


Alkehol:
Noc plná hvězd s Mr. Big a Pro-Pain, Basinfirefest s Ill Niño, Benátská noc
s Clawfinger
- muzikus.cz


 

Harlej

Fanúšikov: 28



A B C Č D E F G H CH I J K L Ľ M N O P Q R S Š T U V W X Y Z Ž



ako:
Harlej - Odcházím solo-celé
Harlej - Odcházím solo-celé

tlač

edituj
Pesničku videlo 3805 návštevníkov.

Kvalita tabov : bez hodnotenia
Hodnotilo ľudí: 0 ohodnoť aj ty
Prispievateľ:

Panx
  *** Autor textu: harlej *** Autor hudby: harlej

INTRO

E----------------------/---------------------------------------------------
B----------------------/---------------------------------------------------
G-----------12---------/-------------------12-------12------14----12---14---
D---7/14---------10----/---14---12---14------14-----------------------------
A----------------------/
E----------------------/

E------------------------------------//------------------/
B------13------13--15—13—15----------//-17—15—17----13_-_/
G----------14------------------------//------------------/
D-------------------------------------/------------------/
A-------------------------------------/------------------/
E-------------------------------------/------------------/


SOLO
Tlumeně vyšplhat až na 12 pražec na D

E---------------------------------------------------------------------------
B---------------------------------------------------------------------------
G-----------------------------------------------------------12------------
D—12.—14—14—12—10—12__--14—12—10__-12—10__--14—14—12—10/9—9---12-9__--------
A---------------------------------------------------------------------------
E--------------------------------------------------------------------------

E
B------------------12—13—13-13/17—17—15—13—15__-17—15—13__-17—17—15—13—15__/
G12.-14(legato)---------------/-------------------------------------------/-
D-----------------------------/--------------------------------------------/
A-----------------------------/--------------------------------------------/
E-----------------------------/--------------------------------------------/



E
B------------15—13—15—17—15---13___/
G-12—14—12-------------------------/
D----------------------------------/
A----------------------------------/
E----------------------------------/

Pokud chcete hrat jako harlej na koncertech,tak podladit kytaru,nebo vše o jeden pražec níž

 
»
Tvoje obľúbené položky
Tvoje obľúbené položky
»
Nové albumy interpreta
Nové albumy interpreta
CD Harlej Na prodej
CD Na prodej
CD Harlej Best of harlejland
CD Best of
harlejland
CD Harlej Ctyri z punku a pes
CD Ctyri z punku a
pes
CD Harlej Kdyz chvalim,tak sebe
CD Kdyz chvalim,tak
sebe

»
Najnovšie videá
Najnovšie videá
»
Najnavštevovanejšie piesne
Najnavštevovanejšie piesne
Pověste ho vejš - akordy a text

Svařák - akordy a text

Přirození - akordy a text

Proč pocit mám - akordy

Než to s náma půjde ke dnu - akordy

Proměna - akordy a text

Královna noci - akordy a text

Kapitán Morgan - akordy a text

Malá nevěrná holka(dobře) - akordy a text

Kulisácká - akordy a text

viac




home | interpreti | register piesní | cd & dvd shop | pripomienky/nápady | kontakt | ochrana údajov | inzercia
Copyright © Pavol Bacigál, 2000-2017. Všetky práva vyhradené.
TOPlist