Jaksi Taksi

piesne (168)

  texty (145) / preklady (0)
  akordy (103) / taby (18)
  noty (0) / slideshow (0)

články (39)
fotogaléria
diskusia
videá
diskografia
v obchode
odkazy
koncerty
sťahuj



pridaj vlastný článok

Jaksi Taksi:
Predstavili skladbu PÁRTY - Pop-punková kapela JAKSI TAKSI vydává v současné době novou skladbu s názvem PÁRTY. Spo... - Starline Media


Jaksi Taksi:
JAKSI TAKSI - RETRO Tour 2016 - Pražská pop-punková kapela JAKSI TAKSI připravila na říjen sérii jedinečných koncertů. ... - starline-media


Ota Balage:
S deskou 'Na prodej' pomáhal Harleji i Ota Balage. Na turné vyrazí s Jaksi Taksi - S deskou "Na prodej" pomáhal Harleji i Ota Balage. Na turné vyrazí s Jaksi Taksi Vydán... - musicserver.cz


Jaksi Taksi:
Jaksi Taksi: Nový videoklip Vteřina - Jaksi Taksi je pop-punková kapela, jejíž videa v poslední době vzbuzují čím dál větší poz... - starline-media.cz


Jaksi Taksi:
SheepFest - to je kvalitní hudba a budou se bourat předsudky - Vysokoškolští studenti v Hradci Králové připravují třetí ročník hudebního festivalu Sheep... - Bc. Jiří Jína


Jaksi Taksi:
Nový videoklip skupiny JAKSI TAKSI - Cítím - Klip byl natočen a vytvořen v extrémně krátkém čase 24 hodin. Točilo se tak od rána od 5:...


Jaksi Taksi:
Videoklip JAKSI TAKSI byl zakázán! - Nejlepší česká pop-punková formace vydala na konci loňského roku album s názvem Signál a ...


Jaksi Taksi:
Jan Frohlich, bubeník pop punkových Jaksi Taksi, chystá další bubenická videa. - Po před rokem natočeným drumcoveru pro seskupení ORIKOULE na skladbu UŽ NIKDY NECHCI BÝT ...


Imodium:
FESTIVAL ODTAJNIL PROGRAM A ZAHÁJIL PŘEDPRODEJ VSTUPENEK - Dnes již kultovní jihočeský festivalu Open Air Musicfest ohlašuje 12. ročník a s ním ně...


Jaksi Taksi:
“Zachovajte paniku”, český neopunk je tu stále – report Jaksi Taksi - musicpress.sk


 

Jaksi Taksi

Fanúšikov: 34



A B C Č D E F G H CH I J K L Ľ M N O P Q R S Š T U V W X Y Z Ž



ako:
Jaksi Taksi - Dobrý dny - kytara + basa
Jaksi Taksi - Dobrý dny - kytara + basa

tlač

edituj
Pesničku videlo 3335 návštevníkov.

Kvalita tabov : bez hodnotenia
Hodnotilo ľudí: 0 ohodnoť aj ty
Prispievateľ:

ADZI
E --------------------------------|--------------------------------|
H 2-----0-------2-------3---2-0---|2-----0-------2-------3---2-0---|
G --2-------2-------2-------------|--2-------2-------2-------------|
D ----2-------2-------2-----------|----2-------2-------2-----------|
A --------------------------------|--------------------------------|
E --------------------------------|--------------------------------|

G --------------------------------|--------------------------------|
D --------------------------------|--------------------------------|
A --------------------------------|----------------5-5-5-5-5-5-5-5-|
E 5-5-5-5-5-5-5-5-5-5-5-5-5-5-5-5-|2-2-2-2-2-2-2-2-----------------|

****************************************************************************

E --------------------------------|
H 2-----0-------2-------3---2-0---|
G --2-------2-------2-------------|
D ----2-------2-------2-----------|
A --------------------------------|
E --------------------------------|

G --------------------------------|
D --------------------------------|
A --------------------------------|
E 5-5-5-5-5-5-5-5-5-5-5-5-5-5-5-5-|

****************************************************************************

E --------------------------------|--------------------------------|
H 2-----0-------2-------3---2-0---|--------------------------------|
G --2-------2-------2-------------|--------------------------------|
D ----2-------2-------2-----------|--------------------------------|
A --------------------------------|--------------------------------|
E --------------------------------|--------------------------------|

G --------------------------------|--------------------------------|
D --------------------------------|--------------------------------|
A ----------------5-5-5-5-5-5-5-5-|--------------------------------|
E 2-2-2-2-2-2-2-2-----------------|0-0-0-0-0-0-0-0-0---------------|


Doprovodka hraje celou dobu akordy ve: v předehře na každou osminu a ve sloce si to musíš oposlouchat sám :-P ale je to lehký ;-)

 
»
Tvoje obľúbené položky
Tvoje obľúbené položky
»
Nové albumy interpreta
Nové albumy interpreta
CD Jaksi Taksi Jaksi taksi signal
CD Jaksi taksi
signal

»
Najnovšie videá
Najnovšie videá

Jaksi Taksi - DOBRÝ DNY - album Zachovej

JAKSI TAKSI in Polná Dobrý Dny

Jaksi Taksi - Dobrý dny (Keblov - 06. 06

JAKSI TAKSI - Všechno dobrý ( CD Všechn

Jaksi Taksi - Nálada

Jaksi Taksi - Špatný Dny
»
Najnavštevovanejšie piesne
Najnavštevovanejšie piesne
Škola + taby - akordy a text

Jednou - akordy a text

Jednou (správné akordy) - akordy a text

Optimista - akordy a text

On-line - akordy a text

Lavičky - akordy a text

Derniéra - akordy a text

Ruce spojený - text i akrody - akordy a text

Přání - akordy a text

Maturitní večírek - akordy a text

viac




home | interpreti | register piesní | cd & dvd shop | pripomienky/nápady | kontakt | ochrana údajov | inzercia
Copyright © Pavol Bacigál, 2000-2017. Všetky práva vyhradené.
TOPlist