Hymnické Piesne

piesne (36)

  texty (30) / preklady (0)
  akordy (9) / taby (1)
  noty (0) / slideshow (0)

články (1)
fotogaléria
diskusia
videá
diskografia
v obchode
odkazy
koncerty
sťahuj



pridaj vlastný článok

Hymnické Piesne:
Do predaja CD Hymny Sveta (30 krajín). - Do predaja CD Hymny Sveta (30 krajín). Do predaja sme nasadili i CD od vydavateľstva S...


 

Hymnické Piesne

Fanúšikov: 0



A B C Č D E F G H CH I J K L Ľ M N O P Q R S Š T U V W X Y Z Ž



ako:
Hymnické Piesne - Kde domov můj
Hymnické Piesne - Kde domov můj

tlač

edituj
Pesničku videlo 8571 návštevníkov.

Kvalita tabov : bez hodnotenia
Hodnotilo ľudí: 0 ohodnoť aj ty
Prispievateľ:

afas69
e---------------|-----------------|------------------------------------|
H--12-14-12-----|-----------------|-------------------12-14-12---------|
G---------------|---14-13---------|------------14~-14-----------13-----|
D-----------16~-|---------16-14~--|---14-14-14---------------------14~-|
A---------------|-----------------|------------------------------------|
E---------------|-----------------|------------------------------------|


e--------------------12~---------------|------------------------|
H-----------------14-----16-14-14~-12~-|-12-12-12~-14-12--------|
G-----------14-14----------------------|-----------------14-13~-|
D--14-14-14----------------------------|------------------------|
A--------------------------------------|------------------------|
E--------------------------------------|------------------------|


e------------------------|-------------------------------------|
H-12-12-16~-14-12--------|----------------------------14-14~---|
G-----------------14-13--|-13-13-13~---13-13-15-17-17----------|
D------------------------|-------------------------------------|
A------------------------|-------------------------------------|
E------------------------|-------------------------------------|


e--------------------------12~-|-------------------------|
H-14-14-14-12-12~----12--------|--16-14-14-12~-----------|
G-----------------14----13-----|------------------13-----|
D------------------------------|---------------16----14~-|
A------------------------------|-------------------------|
E------------------------------|-------------------------|

Délka držení asi neni přesně, ale hymnu snad každej zná a naposlouchá to!

 
»
Tvoje obľúbené položky
Tvoje obľúbené položky

»
Najnovšie videá
Najnovšie videá

Kde domov můj. Česká hymna. Czech anthem

Karel Gott y Karel Kryl - Kde domov můj?

Shomi - Pravá Slovenská hokejová hymna 2

Ponad Tatru blýska - predchodca slovensk

TOP 4 hokejové hymny a prezentácia repre

Československá hymna
»
Najnavštevovanejšie piesne
Najnavštevovanejšie piesne



home | interpreti | register piesní | cd & dvd shop | pripomienky/nápady | kontakt | ochrana údajov | inzercia
Copyright © Pavol Bacigál, 2000-2017. Všetky práva vyhradené.
TOPlist