Kabát

piesne (536)

  texty (262) / preklady (0)
  akordy (174) / taby (242)
  noty (0) / slideshow (0)

články (317)
fotogaléria
diskusia
videá
diskografia
v obchode
odkazy
koncerty
sťahuj



pridaj vlastný článok

Kabát:
Skupina Kabat na Topfeste! - ... - livemusic.sk


Kabát:
ROCK POD KAMEŇOM PODPORUJE ČESKO-SLOVENSKÚ ROCKOVÚ SCÉNU - Kompletný line-up nabitý svetovými rockermi s výbornou muzikou uzatvárajú zoskupenia rock... - P.Dráb


Accept:
Report z Metalfest Open Air 2016 v Plzni - Pamatujete na rok 2010, kdy se Metalfest Open Air konal poprvé? Tenkrát byl součástí sé... - rockmag.cz


Kabát:
Kabát prý prodal nejvíce desek, cenu na Andělech ale nevyhraje - Kabát prý prodal nejvíce desek, cenu na Andělech ale nevyhraje Nové desky pro 14. tý... - musicserver.cz


Adele:
Pětadvacátý ročník hudebních cen Anděl zná své výherce - Pětadvacátý ročník hudebních cen Anděl zná své výherce Video: Slza v novém klipu k p... - musicserver.cz


Kabát:
Kabát tvrdí, že je nespravedlivě vyřazen z boje o nejprodávanější album - Skupina Kabát tvrdí, že byla vyřazena z boje o nejprodávanější album loňského roku. Stalo... - novinky.cz


Kabát:
Kabát vyhlásil bojkot cenám Anděl! Podle rockerů jsou výsledky zmanipulované! - Skupina Kabát letošní ceny Anděl bude bojkotovat. Podle ní jsou výsledky zmanipulované. ... - blesk.cz


Kabát:
Spokojený rocker Pepa Vojtek: Vyvedl těhotnou manželku na nákupy - Šťastný rocker Pepa Vojtek vyvedl těhotnou manželku. Pepa Vojtek s manželkou Jovankou vy... - blesk.cz


Chinaski:
Hudobníci budú na TOPFEST-e skladať rockovú maturitu. V porote sú aj Zuzana
Smatanová, či Polemic!
- Published by MUSIC ZONE on 24. marca 2016 | Komentáre vypnuté na Hudobníci budú na TOPFES... - music-zone.eu


Kabát:
Na 13-tom ročníku festivalu TOPFEST to roztočia kapely Kabát, Puddle of Mudd a
UK Subs!
- ... - livemusic.sk


 

Kabát

Fanúšikov: 177



A B C Č D E F G H CH I J K L Ľ M N O P Q R S Š T U V W X Y Z Ž



ako:
Kabát - Máš to už za sebou
Kabát - Máš to už za sebou

tlač

edituj
Poznámka: - Po čertech velkej koncert

Pesničku videlo 4282 návštevníkov.

Kvalita tabov : bez hodnotenia
Hodnotilo ľudí: 0 ohodnoť aj ty
Prispievateľ:

Black
  *** Autor textu: Black *** Autor hudby: Kabát
úvod:
E// -------------------------------
B// -------------------------------
G// -------------------------------
D// -------------------------------
A// --5-4-0--5--4-0--5-4-0--5--4-0-
E// -------------------------------

intro:
E// -------------------------------------------------
B// -------------------------------------------------
G// --9--9-9-11--9-6-7---11-9-6-9----11-9-6-7-11-9-6-
D// ------------------------------7------------------
A// -------------------------------------------------
E// -------------------------------------------------

sloka: hraje se tlumeně a normálně - oposlouchejte si to
E// ------------------------------------
B// ------------------------------------
G// ------------------------------------
D// --7-7-7-7-7-7-7-7---5-5-5-5-5-5-5-5-5-
A// --7-7-7-7-7-7-7-7---5-5-5-5-5-5-5-5-5-
E// --5-5-5-5-5-5-5-5---3-3-3-3-3-3-3-3-3-

předrefrén: hraje se tlumeně a normálně - oposlouchejte si
E// -----------------------------------
B// -----------------------------------
G// --9-9-9-9-9-9-9-9---7-7-7-7-7-7-7--
D// --9-9-9-9-9-9-9-9---7-7-7-7-7-7-7--
A// --7-7-7-7-7-7-7-7---5-5-5-5-5-5-5--
E// -----------------------------------

refrén: 3x konec refrénu:
E// ----------------- ---------------
B// ----------------- ---------------
G// ----------7--7-7- ---------------
D// --7--7-7--7--7-7- --5-5-5-5-5-5-5
A// --7--7-7--5--5-5- --5-5-5-5-5-5-5
E// --5--5-5--------- --3-3-3-3-3-3-3

vyhrávka 1: 4x
E// --------------------------------
B// --------------------------------
G// --------------------------------
D// --------------------------------
A// --7--------------5-4-0--5--4-0--
E// --5--8-5-8-5--5-----------------

sloka, předrefrén

refrén

vyhrávka 2: 3x konec vyhrávky:
E// ------------------------ ----------------------------------------
B// ------------------------ ----------------------------------------
G// ------------------------ ----------------------------------------
D// ------------------------ ----------------------------------------
A// --7-----6--------------- 7-----6------5-4-0-5--4-0--5-4-0-5--4-0-
E// ----6-5---0-0-0-0-0-0-0- --6-5-----------------------------------

vyhrávka 1

sloka

refrén





 
»
Tvoje obľúbené položky
Tvoje obľúbené položky
»
Nové albumy interpreta
Nové albumy interpreta
DVD Kabat KabÁt 2013-2015 vypich 2014 + o2 arena [3dvd+cd]
DVD Kabát 2013-2015
vypich 2014 + o2
arena [3dvd+cd]
4xCD Kabat Original albums 4cd vol.1
4xCD Original albums
4cd vol.1
3xVINYL Kabat Suma sumarum [vinyl]
3xVINYL Suma sumarum
[vinyl]
CD Kabát Do pekla do nebe
CD Do pekla do nebe
2xCD Kabat Banditi di praga turne 2011
2xCD Banditi di praga
turne 2011
CD Kabat Banditi di praga
CD Banditi di praga

»
Najnovšie videá
Najnovšie videá

Kabát - Máš to už za sebou

Kabat - Mas to uz za sebou (1991)

Kabát - Máš to už za sebou [DVD 2009 - P

Kabát Máš to už za sebou

11 - Kabát - Máš to už za sebou.wmv

Kabát- Máš to za sebou, Vypich 2009
»
Najnavštevovanejšie piesne
Najnavštevovanejšie piesne
Malá dáma - akordy a text

Houby magický - akordy a text

Pohoda - akordy a text

Western Boogie - akordy

Kdoví jestli - akordy a text

Burlaci - akordy a text

Brousíme nože - akordy a text

Corrida - akordy a text

Schody - akordy a text

Malá Dáma ver.2 - akordy a text

viac




home | interpreti | register piesní | cd & dvd shop | pripomienky/nápady | kontakt | ochrana údajov | inzercia
Copyright © Pavol Bacigál, 2000-2017. Všetky práva vyhradené.
TOPlist