Jaromír Nohavica

piesne (871)

  texty (616) / preklady (97)
  akordy (505) / taby (122)
  noty (10) / slideshow (0)

články (222)
fotogaléria
diskusia
videá
diskografia
v obchode
odkazy
koncerty
sťahuj



pridaj vlastný článok

Jaromír Nohavica:
Foto: Nohavica v Dubline a Londýne - Fotografie z krátkého turné do Velké Británie a Irska - koncerty v Londýně a Dublinu. Hos... - nohavica.cz


Jaromír Nohavica:
Svou káru táhnem dál: Jaromír Nohavica a Kapela - Jaromír Nohavica autor: Česká televize zvětšit obrázek Svou káru táhnem dál: Jaromí... - scena.cz


Petr Hapka:
JAREK NOHAVICA ZPÍVÁ PÍSEŇ PRO HAPKU - Jaromír Nohavica zhudebnil a nazpíval text Michala Horáčka věnovaný Petru Hapkovi. Mic... - youtube.com


Jaromír Nohavica:
Sarkastická Nohavicova pieseň unikla na internet: Drsná provokácia slovenských
hokejistov!
- Sarkastická Nohavicova pieseň unikla na internet: Drsná provokácia slovenských hokejistov... - cas.sk


Jaromír Nohavica:
Nohavica zložil skladbu pre slovenských hokejistov - Český pesničkár Jaromír Nohavica predstavil počas tohtotýždňového turné v Bratislave špec...


Jaromír Nohavica:
Boris Urbánek píše s Nohavicou operu o Juditě - Jarek Nohavica Operu na motivy starozákonního příběhu o Juditě, známé ze slavného o... - novinky.cz


Korben Dallas:
Valašský špalíček ohlašuje samé písničkáře - DNES | Autor: Libor Galia | sekce: festivaloviny Valašský špalíček 2013, ... - muzikus.cz


Jaromír Nohavica:
Liberec, Chomutov, Teplice. Nohavica opět pobaví sever - Jarek Nohavica. Severní Čechy - Máte vstupenky? Ne? Ale ony už se nám ty zážitky rychl...


Karel Kryl:
Nohavica hral a spieval Kryla. K jeho nedožitým sedemdesiatinám - Nohavica hral a spieval Kryla. K jeho nedožitým sedemdesiatinám Pr i počúvaní priam... - sme.sk


Jaromír Nohavica:
Do prodeje jdou další lístky na pražské koncerty Jaromíra Nohavici - musicserver.c... - musicserver.cz


 

Jaromír Nohavica

Fanúšikov: 258



A B C Č D E F G H CH I J K L Ľ M N O P Q R S Š T U V W X Y Z Ž



ako:
Jaromír Nohavica - Darmoděj
Jaromír Nohavica - Darmoděj

tlač

edituj
Poznámka: kytara taby 100%

Pesničku videlo 15208 návštevníkov.

Kvalita tabov : bez hodnotenia
Hodnotilo ľudí: 0 ohodnoť aj ty
Prispievateľ:

Jarcek
  *** Autor textu: Jaromír Nohavica *** Autor hudby: Jaromír Nohavica
Sólo na začátku a na konci
nátryl
e|--8--------8----|-7_8-7_5-5---|-3---1-------|----0_1_0---0-|-----10-8-6-5-|
h|-(10)---10---10-|-----------5-|---1---1-3---|--------1---1-|---3----------|
g|-(9)--9---------|-------------|-----------0-|---0------0---|-----10-9-7-5-|
D|-(10)-----------|-------------|-0-----------|-2------------|---3----------|
A|--0-------------|-------------|-------------|--------------|-1------------|
E|----------------|-0-----------|-------------|--------------|--------------|

sloka
e|---5-5-5-5-|-------4-4-|-/5--|:-----5---5---|-----7---7---|-8------5-----|
h|-----------|---3---3-3-|-/5--|:-----5---5---|-----8---8---|------5---5---|
g|---5-5-5-5-|-------4-4-|-/5--|:---5---5---5-|---9---9---9-|----5-------5-|
D|-----------|---3-2-----|-/7--|:-------------|-------------|--------------|
A|-0---------|-1---------|-/0--|:-0-----------|-------------|-0------------|
E|-----------|-----------|-----|:-------------|-0-----------|--------------|

e|-7-------7---|-----5---5---|-----7---7---|-9------5-----|-7---------|
h|---8---8---8-|-----5---5---|-----8---8---|------5---5---|---8-------|
g|-----9-------|---5---5---5-|---9---9---9-|----5-------5-|-----9--7--|
D|-------------|-------------|-------------|--------------|-----------|
A|-------------|-0-----------|-------------|-0------------|-----------|
E|-0-----------|-------------|-0-----------|--------------|-0---------|

e|-----0---0---|-------------|-------------|-------------|-----1---1----|
h|-----1---1---|-----0---0---|-----1---1---|-----0---0---|-----1---1----|
g|---0---0---0-|-----0---0---|-----2---2---|-----0---0---|---2---2---2--|
D|-------------|---0---0---0-|---2---2---2-|---2---2---2-|-3------------|
A|-3-----------|-------------|-0-----------|-------------|--------------|
E|-------------|-3-----------|-------------|-0-----------|--------------|
_________________________
|1.
e|-----2---2---|-----4-----4-|----4--|-----5---5-|-----5---5-:|
h|-----1---1---|-----3-----3-|----3--|-----5---6-|-----5---6-:|
g|---2---2---2-|---4---4-----|----4--|---5---5---|---5---5---:|
D|-1-----------|-2-----------|-2-----|-----------|-----------:|
A|-------------|---------2---|-------|-0---------|-0---------:|
E|-------------|-------------|-------|-----------|-----------:|
____________
|2.
e|-----------|
h|-----0---1-|
g|-----2---2-|
D|---2---2---|
A|-0---------|
E|-----------|

R:

e|:---0-0--|--------|---3-3--|---3-3--|--------|-------|---2-2--|---4-4-:|
h|:---1-1--|---0-0--|---1-1--|---0-0--|---1-0--|---1-0-|---1-1--|---3-3-:|
g|:--(2-2)-|---0-0--|--(0-0)-|--(0-0)-|---2-2--|---2-0-|--(2-2)-|---4-4-:|
D|:--(2-2)-|--(2-2)-|--(2-2)-|--(0-0)-|--(2-2)-|-3-----|-1------|-2-----:|
A|:-0------|--------|-3------|--------|-0------|-------|--------|-------:|
E|:--------|-0------|--------|-3------|--------|-------|--------|-------:|

Vysvetlivky:
|:-x-:| repetice
x_x legato
(x) pravdepodobne neni v nahravce, ale hodi se to tam :)
/x aperggio

Nezarucuji uplnou presnost, ale jinak ZDAR! ;)

 
»
Tvoje obľúbené položky
Tvoje obľúbené položky
»
Nové albumy interpreta
Nové albumy interpreta
3xCD+DVD Nohavica Jaromir Jarek nohavica a pratele (2cd & dvd)
3xCD+DVD Jarek nohavica a
pratele (2cd &
dvd)
CD Nohavica Jaromir Tenkrat-nostalgie 90 let
CD Tenkrat-nostalgi
e 90 let
4xCD Nohavica Jaromir Box [mikym./3cunici/darmodej/divne stole
4xCD Box
[mikym./3cunici/
darmodej/divne
stole
CD Nohavica Jaromir Divne stoleti
CD Divne stoleti
CD Nohavica Jaromir Tak me tu mas
CD Tak me tu mas
BD Nohavica Jarek V lucerne (blu-ray)
BD V lucerne
(blu-ray)

»
Najnovšie videá
Najnovšie videá

Jaromír Nohavica - Darmoděj (celý album)

Nohavica - Darmodej

Jaromír Nohavica - 13 Darmoděj

Jaromir Nohavica - Darmoděj

Darmoděj

Jaromir Nohavica - Darmoděj
»
Najnavštevovanejšie piesne
Najnavštevovanejšie piesne
Křídla z mýdla - akordy

Kometa - akordy a text

Mám jizvu na rtu - akordy a text

Minulost - akordy a text

Hlídač krav - akordy a text

Dokud se zpívá - pro začátečníky - akordy a text

Zítra ráno v pět - Originál - akordy a text

U nás na severu - akordy a text

Mám jizvu na rtu - doplněno - akordy

Kříž svůj neseme - akordy

viac




home | interpreti | register piesní | cd & dvd shop | pripomienky/nápady | kontakt | ochrana údajov | inzercia
Copyright © Pavol Bacigál, 2000-2017. Všetky práva vyhradené.
TOPlist