Harlej

piesne (155)

  texty (133) / preklady (0)
  akordy (81) / taby (12)
  noty (0) / slideshow (0)

články (31)
fotogaléria
diskusia
videá
diskografia
v obchode
odkazy
koncerty
sťahuj



pridaj vlastný článok

Harlej:
VIDEO: Harlej tvrdí, že hodný holky chtějí zlý kluky. Hostem turné bude
zakázanÝovoce
- Vydáno včera | autor: Nicola Bernard Přesně před rokem slavila skupina Harlej kula... - ireport.cz


Harlej:
Harlej představí na podzimním turné novou píseň "Hodný holky zlý kluky chtěj" - Vydáno: 08.10.2016 18:15 v sekci Tiskové zprávy - Tisková zpráva SDÍLET: Přesně... - musicserver.cz


Harlej:
HARLEJ VYDAVÁ PAMÁTNÝ KONCERT NA DVD - pondělí, 11 duben 2016 17:25 Napsal(a) Jirka Mimra velikost písma zmenšit velikost písm... - musicweb.cz


Harlej:
Harlej vyráží na jarní turné s výročním DVD v zádech - Vydáno: 24.03.2016 11:24 v sekci Novinky - Milan Menčík SDÍLET: Harlej loni osl... - musicserver.cz


Ota Balage:
S deskou 'Na prodej' pomáhal Harleji i Ota Balage. Na turné vyrazí s Jaksi Taksi - S deskou "Na prodej" pomáhal Harleji i Ota Balage. Na turné vyrazí s Jaksi Taksi Vydán... - musicserver.cz


Harlej:
Skupina Harlej: Hity? Vytáhneme tabulky, proškrtáme je a šoupnem to tam - denik.cz


Harlej:
Nová hudební talk show ROCK OUT je v provozu od října - ireport.cz


Arakain:
Votvírák v Milovicích již popáté otevře letní festivalovou sezónu - ceskenoviny.cz


Arakain:
Votvírák láká na obrovské množství domácích kapel - novinky.cz


Alkehol:
Noc plná hvězd s Mr. Big a Pro-Pain, Basinfirefest s Ill Niño, Benátská noc
s Clawfinger
- muzikus.cz


 

Harlej

Fanúšikov: 28



A B C Č D E F G H CH I J K L Ľ M N O P Q R S Š T U V W X Y Z Ž



ako:
Harlej - Pověste ho vejš
Harlej - Pověste ho vejš

tlač

edituj
Poznámka: Není to úplně přesný.

Pesničku videlo 11422 návštevníkov.

Kvalita tabov : bez hodnotenia
Hodnotilo ľudí: 0 ohodnoť aj ty
Prispievateľ:

Mates
e|-------------------------|-------------------------|
H|-------------------------|------------10-10-10-----|
G|-11-11-11-9-11-11-11-9-11|-11-11-11-9----------11--|
D|-------------------------|-------------------------|
A|-------------------------|-------------------------|
E|-------------------------|-------------------------|

e|-------------------------|--------------------|
H|-------------------------|--------------------|
G|-11-11-11-9-11-11-11-9---|----9-11-11-11-9-11-|
D|-----------------------11-|-11----------------|
A|-------------------------|--------------------|
E|-------------------------|--------------------|

e|----------------------------|-------------------------|
H|-11-11-11-9--11-11-9--11-9--|-11-11-11-9--11-11-9--11-|
G|-12-12-12-10-12-12-10-12-10-|-12-12-12-10-12-12-10-12-|
D|----------------------------|-------------------------|
A|----------------------------|-------------------------|
E|----------------------------|-------------------------|

e|------------------------|-9-12s11s10-9-12s11s10-9-12s11s10-9-|
H|------------------------|------------------------------------|
G|12-12b-12-12b-12-1b2-12-|------------------------------------|
D|------------------------|------------------------------------|
A|------------------------|------------------------------------|
E|------------------------|------------------------------------|

e|-----------------------|------------------------------|
H|9----9----9----9----14v|-9-10-------------------------|
G|--12---12---12---12----|------9-10--------------------|
D|-----------------------|-----------9-10------------12-|
A|-----------------------|----------------9-10----------|
E|-----------------------|----------------------11------|

 
»
Tvoje obľúbené položky
Tvoje obľúbené položky
»
Nové albumy interpreta
Nové albumy interpreta
CD Harlej Na prodej
CD Na prodej
CD Harlej Best of harlejland
CD Best of
harlejland
CD Harlej Ctyri z punku a pes
CD Ctyri z punku a
pes
CD Harlej Kdyz chvalim,tak sebe
CD Kdyz chvalim,tak
sebe

»
Najnovšie videá
Najnovšie videá

Harlej - Pověste ho vejš

Harlej - Pověste ho vejš

Harlej - Pověste ho vejš live - kd Herál

Harlej pověste ho vejš + svařák

Walda & Gang - Pověste ho vejš

Masters Of Rock 2015 Harlej - Pověste ho
»
Najnavštevovanejšie piesne
Najnavštevovanejšie piesne
Pověste ho vejš - akordy a text

Svařák - akordy a text

Přirození - akordy a text

Proč pocit mám - akordy

Než to s náma půjde ke dnu - akordy

Proměna - akordy a text

Královna noci - akordy a text

Kapitán Morgan - akordy a text

Malá nevěrná holka(dobře) - akordy a text

Kulisácká - akordy a text

viac




home | interpreti | register piesní | cd & dvd shop | pripomienky/nápady | kontakt | ochrana údajov | inzercia
Copyright © Pavol Bacigál, 2000-2017. Všetky práva vyhradené.
TOPlist