Robo Mikla

piesne (52)

  texty (47) / preklady (0)
  akordy (5) / taby (2)
  noty (0) / slideshow (0)

články (204)
fotogaléria
diskusia
videá
diskografia
v obchode
odkazy
koncerty
sťahuj



pridaj vlastný článok

Robo Mikla:
Robo Mikla a jeho POCITY už vo štvrtok v Bratislave! - Published by MUSIC ZONE on 15. marca 2016 | Komentáre vypnuté na Robo Mikla a jeho POCI... - music-zone.eu


Robo Mikla:
Chystá zbierku kníh o alkoholizme - Slovenský spevák a hudobník Robo Mikla, známy z prvého ročníka Slovensko hľadá S...


Robo Mikla:
Róbert Mikla v novom klipe - Na Slovensku? Srať!!! - Keď sa pozrieme na spevákovu profilovú fotku na sociálnej sieti, je otázne, či ho s... - ZV&SZ


Robo Mikla:
Exkluzívna premiéra klipu: Toto odkazuje Robo Mikla spoza veľkej mláky! - ... - dnes24.sk


Robo Mikla:
Robo Mikla predstavuje nový videoklip! - ... - music-zone.eu


Robo Mikla:
Robo Mikla predstavuje nový videoklip! - ... - music-zone.eu


Robo Mikla:
Róbert Mikla: Mal som pocit, že umieram zaživa - sme.sk


Robo Mikla:
Robo Mikla v novom klipe: S gitarou provokuje na záchode - ziar24.sk


Robo Mikla:
Rytmus kazí morálku, je ako narkodíler, tvrdí znechutene Mikla! - topky.sk


Lukáš Adamec:
Rebeli v SuperStar: Toto sú najproblémovejší speváci súťaže! - cas.sk


 

Robo Mikla

Fanúšikov: 10



A B C Č D E F G H CH I J K L Ľ M N O P Q R S Š T U V W X Y Z Ž



ako:
Robo Mikla - Keby zastal čas
Robo Mikla - Keby zastal čas

tlač

edituj
Rok vzniku: 2010
Pesničku videlo 4051 návštevníkov.

Kvalita tabov : bez hodnotenia
Hodnotilo ľudí: 0 ohodnoť aj ty
Prispievateľ:

MajkoXY
  *** Autor textu: Milan Herstek *** Autor hudby: Milan Herstek
solo

E------------------------------------------------------------------------
B------5---6-5^6----5------------5-6---8-6-5--6-5^6---------------5------
G--5-7-----------7----7-5----5-7--------------------7---5-4-5-7-4--------
D------------------------------------------------------------------------
A------------------------------------------------------------------------
E------------------------------------------------------------------------


E------------------------------------------------------|----------------|
B--6-5^6----5------------------------------------------|----------------|
G--------7----7-5----5-7-9-10---10/12-10-9--10-9^10----|----------------|
D---------------------------------------------------12-|----------------|
A------------------------------------------------------|----------------|
E------------------------------------------------------|----------------|



E--13-12-----12----------------12-13-----13/15-13-12--13-12^13-----------
B--------15-----15-13----13-15---------------------------------15--------
G------------------------------------------------------------------------
D------------------------------------------------------------------------
A------------------------------------------------------------------------
E------------------------------------------------------------------------


E-----------------12---13-12^13-----12-----------------------------------
B--13-12-13-15-12---------------15-----15-13--------5-6---8-6-5--6-5^6---
G-----------------------------------------------5-7--------------------7-
D------------------------------------------------------------------------
A------------------------------------------------------------------------
E------------------------------------------------------------------------


E-------------------
B-------------------
G--5-5--4--2--4--5--
D-------------------
A-------------------
E-------------------


Ospravedlnujem sa za vynechanu pasaz, ale taky zdatny este nie som :D ak by ste to niekto doplnili, bol by som velmi rad :)

 
»
Tvoje obľúbené položky
Tvoje obľúbené položky
»
Nové albumy interpreta
Nové albumy interpreta
6
CD Mikla Robo Nieco je vo vzduchu
CD Nieco je vo
vzduchu
CD Mikla Robo Projekt nahoda
CD Projekt nahoda
CD Mikla Robo Nedokoncena
CD Nedokoncena

»
Najnovšie videá
Najnovšie videá

Robert Mikla & Projekt - Keby zastal cas

Robert Mikla & Projekt - Keby zastal cas

Robo Mikla na nvteve doma

SHS1-Robo Mikla - 5.finale (Billy Idol -

Robo Mikla-kasting-S HS1

P.S. Mne ku astiu sta - duet s Robom
»
Najnavštevovanejšie piesne
Najnavštevovanejšie piesne



home | interpreti | register piesní | cd & dvd shop | pripomienky/nápady | kontakt | ochrana údajov | inzercia

TOPlist