Helenine Oči

piesne (98)

  texty (82) / preklady (0)
  akordy (40) / taby (10)
  noty (0) / slideshow (0)

články (22)
fotogaléria
diskusia
videá
diskografia
v obchode
odkazy
koncerty
sťahuj



pridaj vlastný článok

Helenine Oči:
Heľenine Oči v punkovej skladbe nakladajú politikom - Heľenine Oči v punkovej skladbe nakladajú politikom ... - ahudba.sk


Helenine Oči:
Video: Heľenine Oči si robia srandu z politikov a myslia to vážne! - ... - livemusic.sk


Helenine Oči:
Heľenine oči vyrazia na akustické turné - ... - korzar.sme.sk


Helenine Oči:
Heľenine Oči idú na akustické turné ŠTÚR TÚR 1815 - ... - livemusic.sk


Helenine Oči:
Heľenine Oči sa tešia na prešovskú úderku na DrinkIn Festivale - Heľenine Oči sa tešia na prešovskú úderku na DrinkIn Festivale ... - ahudba.sk


Helenine Oči:
Helenine oči: BUBENÍK SA NÁM OŽENIL - POZOR!!!! BUBENÍK SA NÁM OŽENIL :D A kedže je to člen.. ako inak za ženu si vzal He... - hel.sk


Helenine Oči:
Heľenine oči: Krst CD Mimozemšťanie - ... - frenky.sk


Back2love:
Dobrý festival už oddnes v prešovskom amfiteátri. Prídu Nagy, Lipa aj
Šeban
- 21.6.2013 13:00 SITA PREŠOV - V Prešove sa 21. a 22. júna uskutoční siedmy ... - atlas.sk


Helenine Oči:
Heľenine oči vydali skladbu Plavčík Milan ako singel - Prešovská skupina Heľenine oči sa rozhodla po minuloročnom koncertnom úspechu sklad...


Back2love:
Na Dobrom festivale bude tanečný stan pre vyše tisíc ľudí - Nočná houseová párty dídžejov Back2Love sa skončí až východom slnka. BRATISLAV...


 

Helenine Oči

Fanúšikov: 29



A B C Č D E F G H CH I J K L Ľ M N O P Q R S Š T U V W X Y Z Ž



ako:
Helenine Oči - Jahody INTRO
Helenine Oči - Jahody INTRO

tlač

edituj
Pesničku videlo 3206 návštevníkov.

Kvalita tabov : bez hodnotenia
Hodnotilo ľudí: 0 ohodnoť aj ty
Prispievateľ:

Igor
E-------------------------------
H-------------------------------
G--555-5-7-9-10-9-7-5-9-5-------
D-------------------------5-----
A-------------------------------
E-------------------------------

E-------------------------------
H-------------------------------
G--555-5-7-9-10-9-7-5-4-5-7-----
D-------------------------------
A-------------------------------
E-------------------------------

E-------------------------------
H-------------------------------
G--555-5-7-9-10-9-7-5-9-5-------
D-------------------------5-----
A-------------------------------
E-------------------------------

E-------------------------------
H-------------------------------
G---------7---55-7-7/5----------
D--55-7-8---7-------------------
A-------------------------------
E-------------------------------

 
»
Tvoje obľúbené položky
Tvoje obľúbené položky
»
Nové albumy interpreta
Nové albumy interpreta
6

»
Najnovšie videá
Najnovšie videá

Helenine oi - Jahody (Spisk Hrhov)

Heenine oi- imprium lahodnch chut (

Heenine Oi - Intro + Hoja hop @ Hell D

Helenine Oci - Jahody, 2009. HQ.

Heenine Oi - Jahody @ Hell Drift Race

Heenine Oi - Jahody ( Vitaj Leto MARG
»
Najnavštevovanejšie piesne
Najnavštevovanejšie piesne
Mariana - akordy a text

Jahody - akordy a text

Mestská polícia - [BASS] - taby

Hoja hop - text

Trim ho - akordy a text

Marianna - text

Domina - akordy a text

Hoja Hop - akordy a text

Mariana - taby

Neplaš še - akordy a text

Plavčík Milan - akordy

Mestská polícia - akordy a text

Žaneta - akordy a text

Močila konope - akordy a text

Jahody - akordy

Nina - akordy

Čurala som v maku - text

Solivar - text

Dobrú chuť, milá smrť - text

Nina - akordy a text

viac




home | interpreti | register piesní | cd & dvd shop | pripomienky/nápady | kontakt | ochrana údajov | inzercia

TOPlist