The Paranoid

piesne (53)

  texty (39) / preklady (0)
  akordy (8) / taby (12)
  noty (0) / slideshow (0)

články (16)
fotogaléria
diskusia
videá
diskografia
v obchode
odkazy
koncerty
sťahuj



pridaj vlastný článok

Asenth:
Finále Rockovej maturity 2016 preverí tvrdosť kategórie Hard & Heavy - včera o 17:30 | redakcia Súťaž neprofesionálnych hudobníkov Rocková maturita sa... - zoznam.sk


Chinaski:
Hudobníci budú na TOPFEST-e skladať rockovú maturitu. V porote sú aj Zuzana
Smatanová, či Polemic!
- Published by MUSIC ZONE on 24. marca 2016 | Komentáre vypnuté na Hudobníci budú na TO... - music-zone.eu


The Paranoid:
Na Rock for People prídu aj The Paranoid - Na český festival Rock for People príde aj slovenská kapela The Paranoid. Do programu...


Smola A Hrušky:
Smola a Hrušky a The Paranoid odpálili turné vypredaným halloweenskym
koncertom!
- ... - livemusic.sk


The Paranoid:
Slovenští Paranoid hosty Rockle - Paranoid a jejich deska Sedem - Foto: Jiří Matějů Paranoid a jejich deska SedemFot... - rozhlas.cz


Arakain:
Co vychází v březnu 2014: přehled novinek - Co vychází v březnu: přehled novinek];" style="display: none;">  ... - IREPORT


The Paranoid:
Skupina The Paranoid má nový album a klip k piesni Nikdy nezabudnem - ... - spravy.pozri.sk


The Paranoid:
Skupina The Paranoid sa ocitla na psychiatrii - Na psychiatrickom oddelení v Prešove koncom minulého roka náhle hospitalizovali Igora...


Black Sabbath:
Paranoid, Iron Man nebo War Pigs naživo: přijedou Black Sabbath - Paranoid, Iron Man nebo War Pigs naživo: přijedou Black Sabbath];" style="display: none... - IREPORT


The Paranoid:
The Paranoid - Dva svety - Slovenská kapela The Paranoid začíná nabírat na slávě i mimo svou zemi. Svým ... - rockmag.cz


 

The Paranoid

Fanúšikov: 30



A B C Č D E F G H CH I J K L Ľ M N O P Q R S Š T U V W X Y Z Ž



ako:
The Paranoid - Únos
The Paranoid - Únos

tlač

edituj
Rok vzniku: 2011
Poznámka: Cover : http://www.youtube.com/watch?v=ih0iypQ6z0M

Pesničku videlo 5917 návštevníkov.

Kvalita tabov :
Hodnotilo ľudí: 1 ohodnoť aj ty
Prispievateľ:

AraThiOn
  *** Autor textu: Igor Belaj *** Autor hudby: The Paranoid
The Paranoid - Únos
Špeciálne chcem podakovať Wemmber25 za pomoc a spoluprácu ;)

Tuning : Drop C

INTRO - Pt.1
D|----------------------------------------------------------------------|
A|----------------------------------------------------------------------|
F|----------------------------------------------------------------------|
C|----------------------------------------------------------------------|
G|-8888-----5555-----8888-----------------8888------5555-----8888-------|
C|-----0-00----0-00------0-00-8888-7777-------0-00------0-00-----0-00-8-|
. .. . .. . .. . .. . .. . ..
INTRO - Pt.2
D|----------------------------------------------------------------------|\
A|----------------------------------------------------------------------|
F|-10101010----------7-7-7-7----------10101010--------------------------|
C|-x-x-x-x-----------x-x-x-x----------x-x-x-x---------------------------| 2x
G|-8-8-8-8-----------5-5-5-5----------8-8-8-8---------------------------|
C|----------0-00-------------0-00-------------0-00--8888-7777-----------|/
. .. . .. . ..

VERSE 1 - Pt.1
D|----------------------------------------------------------------------|
A|----------------------------------------------------------------------|
F|-------------------1010\--------/7-7-7-/7-7-7-----1010\---------------|
C|-------------------x-x-\--------/x-x-x-/x-x-x-----x-x-\---------------|
G|-------------------8-8-\--------/5-5-5-/5-5-5-----8-8-\---------------|
C|-88888888-77777777-------0-00----------------0-00------0-00-8888-7777-|
. .. . .. . ..
VERSE 1 - Pt.2
D|----------------------------------------------|-----------------------|
A|----------------------------------------------|-----------------------|
F|-1010\-------/7-7-7-/7-7-7--------------------|-10101010---10101010---|
C|-x-x-\-------/x-x-x-/x-x-x--------------------|-x-x-x-x----x-x-x-x----|
G|-8-8-\-------/5-5-5-/5-5-5--------------------|-8-8-8-8----8-8-8-8----|
C|--------0-00---------------8(8x)10(8x)--------|-----------------------|
. ..

CHORUS
D|------------------------------------|\
A|------------------------------------|
F|------------------------------------|
C|88888888-55555555-000000-3333333333-| 2x
G|88888888-55555555-000000-3333333333-|
C|88888888-55555555-000000-3333333333-|/

VERSE 2 - Pt.1
D|--------------------------------------------------------------|
A|--------------------------------------------------------------|
F|-10101010----------7-7-7-7----------10101010------------------|
C|-x-x-x-x-----------x-x-x-x----------x-x-x-x-------------------|
G|-8-8-8-8-----------5-5-5-5----------8-8-8-8-------------------|
C|----------0-00-------------0-00-------------0-00--8888-7777---|
. .. . .. . ..

VERSE 2 - Pt.2
D|--------------------------------------------------------------|
A|--------------------------------------------------------------|
F|-10101010----------7-7-7-7------------------------------------|
C|-x-x-x-x-----------x-x-x-x------------------------------------|
G|-8-8-8-8-----------5-5-5-5------------------------------------|
C|----------0-00-------------0-00---88888888-77777777-----------|
. .. . ..

VERSE 2 - Pt.3
D|--------------------------------------------------------------|
A|--------------------------------------------------------------|
F|--1010\--------/7-7-7-/7-7-7-----1010\------------------------|
C|--x-x-\--------/x-x-x-/x-x-x-----x-x-\------------------------|
G|--8-8-\--------/5-5-5-/5-5-5-----8-8-\------------------------|
C|--------0-00----------------0-00------0-00-8888-7777----------|
. .. . .. . ..
VERSE 2 - Pt.4
D|--------------------------------------------------------|
A|--------------------------------------------------------|
F|--1010\--------/7-7-7-/7-7-7----------------------------|
C|--x-x-\--------/x-x-x-/x-x-x----------------------------|
G|--8-8-\--------/5-5-5-/5-5-5----------------------------|
C|--------0-00------------------88888888-1010101010101010-|
. ..

CHORUS
D|------------------------------------|\
A|------------------------------------|
F|------------------------------------|
C|88888888-55555555-00000000-33333333-| 2x
G|88888888-55555555-00000000-33333333-|
C|88888888-55555555-00000000-33333333-|/

PRE-SOLO
D|-------------------------------------------------------|\
A|------------------------------10-----10-----8h--10-----|
F|--7---10--9--7--10--9--7--10---------------------------|
C|-------------------------------------------------------| 7x
G|-------------------------------------------------------|
C|-------------------------------------------------------|/

BRIDGE
D|--17---------18--17-----20--------17------------18-17--|
A|------15--18-------------------18------15----18--------|
F|-------------------------------------------------------|
C|-------------------------------------------------------|
G|-------------------------------------------------------|
C|-------------------------------------------------------|

CHORUS
D|-------------------------------------------------------|
A|-------------------------------------------------------|
F|-------------------------------------------------------|
C|-8888-8888-88-5555-5555-55-0000-0000-00-3333-3333-33---|
G|-8888-8888-88-5555-5555-55-0000-0000-00-3333-3333-33---|
C|-8888-8888-88-5555-5555-55-0000-0000-00-3333-3333-33---|

D|-------------------------------------------------------|
A|-------------------------------------------------------|
F|-------------------------------------------------------|
C|-8888-8888-88-5555-5555-55-0000-0000-00-3333-3333-33-0~|
G|-8888-8888-88-5555-5555-55-0000-0000-00-3333-3333-33-0~|
C|-8888-8888-88-5555-5555-55-0000-0000-00-3333-3333-33-0~|



 
»
Tvoje obľúbené položky
Tvoje obľúbené položky
»
Nové albumy interpreta
Nové albumy interpreta
6
CD Paranoid Tu a teraz
CD Tu a teraz
VINYL Paranoid Satyagraha [vinyl]
VINYL Satyagraha
[vinyl]
CD Paranoid Satyagraha
CD Satyagraha
CD The Paranoid Sedem
CD Sedem

»
Najnovšie videá
Najnovšie videá

The Paranoid - nos (akustick) - TV JOJ

The Paranoid - nos (Guitar cover)

The Paranoid - nos(Cover)+TAB S

The Paranoid - nos [2.7.2011 - Lhotky U

The Paranoid - nos (live) Pust Polom

The Paranoid - nos (bass cover)
»
Najnavštevovanejšie piesne
Najnavštevovanejšie piesne
Niekde tam - akordy a text

Zachráň ma - akordy

V útrobách - akordy a text

Smäd - akordy a text

Smäd - text

Únos - text

Niekde tam - akordy a text

Odkaz - text

Zachráň Ma - text

Búrka Sĺz - text

Búrka Sĺz [+solo] - taby

Z plných pľúc - taby

Pocit slobody (Drop C) - taby

V útrobách - text

Záblesky rán - text

Posledný nádych - text

Odkaz - taby

Únos - taby

Únos - taby

Je v nás viac - text

viac




home | interpreti | register piesní | cd & dvd shop | pripomienky/nápady | kontakt | ochrana údajov | inzercia

TOPlist